Oops, an error
Loading. Please wait.

Passionfruit chords

version 1
version 1

Whole song

  • For practicing you have video lesson here: https://youtu.be/yz5eqfr2M-E.
  • Wasn't too happy with the other versions on here, ... Show more
  • Groovy and straightforward, easy to play.
  • It is very accurate, sounds really good.
  • Chord progression is more accurate than the previo... Show more

Video

  • Intermediate guitar lesson on the picking part for... Show more
by Drake
93,154 views 2,661 this week
2 commentsread comments
1 2 3 4 5
x 30
add to favorites
×
Save as Personal and add changes to this tab that will be seen only by you. Learn more ›
×
You can save this tab as Personal to edit and correct it or add notes. All changes will be seen only by you. Learn more »
launch autoscroll
font size
0
reset
transpose
0
reset
simplify chords
display chords
guitar tuner
edit
Autoscroll
slow
fast
+/-
esc
set tempo
stop
Author
Difficulty
Strumming
There is no strumming pattern for this song yet. and get +5 IQ
[Chords]

These are the voicings of the chords that I used when figuring out the song and I think they sound pretty
nice. You can play a regular E instead of E6 and it will sound good as well.

    E6    C#m7   D#m7    F#                              

e|--9------4------6------x------|
B|--9------5------7------11-----|
G|--9------4------6------11-----|
D|--9------6------8------11-----|
A|--7------4------6------9------|
E|--x------x------x------x------|


[Intro]
 E6                   C#m7                D#m7               F#     E6                                

e|--14-----|------------14-----|------------------|--------------|---------------|
B|------14-|-11b12r11------11--|--11--9----11-----|--11--14------|-----12----14--|
G|---------|-------------------|--------11----11--|----------13--|--13----13-----|
D|---------|-------------------|------------------|--------------|---------------|
A|---------|-------------------|------------------|--------------|---------------|
E|---------|-------------------|------------------|--------------|---------------|


[Verse 1]
E6                           C#m7                  
Listen, seeing you got ritualistic
                             D#m7               
Cleansin' my soul of addiction for now
                          F#     E6     
'Cause I'm fallin' apart, yeah
E6                           C#m7 
Tension between us just like picket fences
                             D#m7      
You got issues that I won't mention for now
                          F#     E6  
'Cause we're fallin' apart


[Chorus]
E6                           
Passionate from miles away
             C#m7   
Passive with the things you say
                 D#m7   
Passin' up on my old ways
                          F#     E6  
I can't blame you, no, no
E6                           
Passionate from miles away
             C#m7   
Passive with the things you say
                 D#m7   
Passin' up on my old ways
                          F#     E6  
I can't blame you, no, no


[Instrumental]

 E6                   C#m7                D#m7               F#     E6                                

e|--14-----|------------14-----|------------------|--------------|---------------|
B|------14-|-11b12r11------11--|--11--9----11-----|--11--14------|-----12----14--|
G|---------|-------------------|--------11----11--|----------13--|--13----13-----|
D|---------|-------------------|------------------|--------------|---------------|
A|---------|-------------------|------------------|--------------|---------------|
E|---------|-------------------|------------------|--------------|---------------|


[Verse 2]
E6                                    C#m7   
Listen, hard at buildin' trust from a distance
                             D#m7  
I think we should rule out commitment for now
                          F#     E6 
'Cause we're fallin' apart
E6                                      C#m7   
Leavin', you're just doing that to get even
                         D#m7  
Don't pick up the pieces, just leave it for now
                        F#     E6 
They keep fallin' apart


[Chorus]
E6                           
Passionate from miles away
             C#m7   
Passive with the things you say
                 D#m7   
Passin' up on my old ways
                          F#     E6  
I can't blame you, no, no
E6                           
Passionate from miles away
             C#m7   
Passive with the things you say
                 D#m7   
Passin' up on my old ways
                          F#     E6  
I can't blame you, no, no
Suggest correction
Creating personal tab
Creating personal tab
You can edit any tab online and save it as your Personal.

You can edit, replace or remove any tab part or add personal notes – all changes will be seen only by you.

Personal tabs can be accessed anytime from any device, even offline.
Learn more »
comments
print report bad tab
2 comments total.
+9 reply
perezp120 56 Mar 22, 2017 01:18 PM

I would suggest changing the F# to G#m, it seems to go with the song a bit better but I could be wrong. Great tab tho!

+1 reply
angelinafanni1 10 Mar 23, 2017 08:41 PM

great tab! so happy someone made this so quickly

guest
You may want to rate the tab now too:
select rating
Wanna post a correction for this tab? Suggest correction