Oops, an error
Loading. Please wait.

Passionfruit solo tab

version 1
version 1

Solo

  • As based on the official Studio Version.
by Drake
5,755 views 171 this week
1 commentread comment
1 2 3 4 5
x 31
add to favorites
×
Save as Personal and add changes to this tab that will be seen only by you. Learn more ›
×
You can save this tab as Personal to edit and correct it or add notes. All changes will be seen only by you. Learn more »
launch autoscroll
font size
0
reset
how to read this tab
guitar tuner
edit
Autoscroll
slow
fast
+/-
esc
set tempo
stop
Author
Difficulty
About this tab version
As based on the official Studio Version. Was this info helpful? Yes No
DRAKE- Passionfruit

Sounds to me as if there is two guitars playing this part in unison.
Repeat throughout the whole song, doesnt stray from this riff.

Palm Mute

[Main riff]
e|---------------------------------------------------------------------------|
B|---------------------------------------------------------------------------|
G|---------------------------------------------------------------------------|
D|------9-11-----9-11-----9-11-----9-11-----9-11-----9-11-----9-11-----9-8---|
A|---7--------7--------7--------7--------------------------------------------|
E|---------------------------------------9-------9--------9--------9---------|

e|---------------------------------------------------------------------------|
B|---------------------------------------------------------------------------|
G|-----------------------------------------11-13-----11----------------------|
D|-----8-9------8-9------8-9------8-9-------------------11-----9-11-----9-11-|
A|--------------------------------------9---------9---------7--------7-------|
E|--11-------11-------11------11---------------------------------------------| 

            
            
Suggest correction
Creating personal tab
Creating personal tab
You can edit any tab online and save it as your Personal.

You can edit, replace or remove any tab part or add personal notes – all changes will be seen only by you.

Personal tabs can be accessed anytime from any device, even offline.
Learn more »
comments
print report bad tab
1 comment total.
0 reply
himanshu.sahota 10 Aug 27, 2017 10:48 AM

Awesome

guest
You may want to rate the tab now too:
select rating
Wanna post a correction for this tab? Suggest correction