Oops, an error
Loading. Please wait.

The Motto Bass Tab

5,968 views 6 this week
2 commentsread comments
1 2 3 4 5
2 more votes to show rating
add to favorites
launch autoscroll
font size
0
reset
guitar tuner
Autoscroll
slow
fast
+/-
esc
set tempo
stop
Help us to improve Ultimate-Guitar.com Take our survey!
×
Author
Difficulty
novice
This is just standard tuning for the bass, a real easy song.


---------------------------------------|
-----------------------------4-4-------|
----2-----3-----4-----3----------------|
-------------------------------------1-|



Depending on the verse the last note may be hit once, but its normally twice. Hope it helped
Suggest correction
Give kudos to tab author, rate the tab!
1 2 3 4 5
comments
print report bad tab
2 comments total.
0 reply
dalem50 10 Aug 21, 2015 12:04 AM, edited at 12:16 am

Whoever made this tab is tone deaf, just like Drake.

0 reply
dalem50 10 Aug 21, 2015 12:15 AM


----------------------------------|
-----------------------------4-4--|
----2----4------5-----4-----------|
----------------------------------|

guest
You may want to rate the tab now too:
select rating
Wanna post a correction for this tab? Suggest correction