Oops, an error
Loading. Please wait.

Circles Acoustic Tab

907 views 1 this week
no commentswrite comment
1 2 3 4 5
please rate
add to favorites
launch autoscroll
font size
0
reset
how to read this tab
guitar tuner
Tab Pro tools
  • play this tab
  • loop segment
  • change instrument
  • show fretboard
  • metronome
Autoscroll
slow
fast
+/-
esc
set tempo
stop
Contributor
Difficulty
novice
Hey, there wasn't a full tab on UG for this song so...sit by a beach, relax and enjoy 
the tab! It's 100% tabbed to the link below (Drake Bell playing it live) but let me know 
if there are any corrections!

Artist: Drake Bell
Song: Circles (Acoustic)
Album: Telegraph
Tuning: Standard

http://www.youtube.com/watch?v=Inc0k6FzpXI&feature=related

Intro (Album Version)

e |-0---x---x---x------|
B |-0---x---x---x------|
G |-1---4---2---4------|
D |-2---2---2---2------|
A |-2---2---2---2------| 	
E |-x---2---x---2------|

e |-x----0----------------|
B |-x----0----------------|
G |-x----0----------------|
D |-x----0----------------|
A |-x----x----------------| 	
E |-x--\b3----------------|

Verse 1

e |-0-------x---x---x------|
B |-0-h3p---x---x---x------|
G |-1-------4---2---4------|
D |-2-------2---2---2------|
A |-2-------2---2---2------| 	
E |-x-------2---x---2------|

Here we are at this party 
Everything is going down 
Music's playing loud 
Keep the pressure off my coffee table 
Momma said it's not loud 
Girls are laughing way too loud 
Jocks stand around 
Oh damn they look so proud 
A dude is spinning records 
Like a stupid fool that won't stop 
Quiet, quiet, baby 
My ears are about to pop 
Look who just walked through the door
It's Brian back from the store 
To show the party he can 
Break it just a little more 

Chorus

e |-0---0---2---0-------|
B |-0---0---4---0-------|
G |-1---2---4---2-------|
D |-2---2---4---2-------|
A |-2---0---2---0-------| 	
E |-x---x---0---0-------|

Hope there's more to life than this 
I'm sure there's more to life than just...

e |-x----0----------------|
B |-x----0----------------|
G |-x----0----------------|
D |-x----0----------------|
A |-x----x----------------| 	
E |-x--\b3----------------|
 

e |-0---0---2---0-------|
B |-0---0---4---0-------|
G |-1---2---4---2-------|
D |-2---2---4---2-------|
A |-2---0---2---0-------| 	
E |-x---x---0---0-------|

Spinning in circles 
You got me spinning in circles

Verse 2

e |-0-------x---x---x------|
B |-0-h3p---x---x---x------|
G |-1-------4---2---4------|
D |-2-------2---2---2------|
A |-2-------2---2---2------| 	
E |-x-------2---x---2------|

Hey there little girl 
Haven't seen you for some time 
How's life been 
Is it good, is it bad, is it...

e |-x----0----------------|
B |-x----0----------------|
G |-x----0----------------|
D |-x----0----------------|
A |-x----x----------------| 	
E |-x--\b3----------------|

e |-0-------x---x---x------|
B |-0-h3p---x---x---x------|
G |-1-------4---2---4------|
D |-2-------2---2---2------|
A |-2-------2---2---2------| 	
E |-x-------2---x---2------|

Fine (so fine) 
Sorry gotta make my rounds 
See you when it dies down 
Music so loud 
Hell, your voice is drown 

Chorus

Solo Chords

e |-0---0---2---0-------|
B |-0---0---4---0-------|
G |-1---2---4---2-------|
D |-2---2---4---2-------|
A |-2---0---2---0-------| 	
E |-x---x---0---0-------|

Bridge 1

e |-0-------x---x---x------|
B |-0-h3p---x---x---x------|
G |-1-------4---2---4------|
D |-2-------2---2---2------|
A |-2-------2---2---2------| 	
E |-x-------2---x---2------|

Now that the party's over 
Hope everybody leaves here sober 
Don't forget your lovely coat 
I'm so relieved that nothing broke 

e |-0-------x-------|
B |-0-h3p---x-------|
G |-1-------4-------|
D |-2-------2-------|
A |-2-------2-------| 	
E |-x-------2--2/---|

Whoa whoa stop right here, 

e |----x---x------|
B |----x---x------|
G |----2---4------|
D |----2---2------|
A |----2---2------| 	
E |----x---2------|

What do you know 
She just...

Bridge 2

e |-0---2----0-------|
B |-0---4----0-------|
G |-8---4----2-------|
D |-6---4----2-------|
A |-7---2----0-------| 	
E |-x---x----0-------|

Brought me another one 
Just like the other one 
Sorry pretty baby but I think I'm done 
You better slow down girl 
You look a little wired 
I gonna slow down myself 
'Cause I'm a little tired 

Chorus

Outro

e |-----------------------|
B |-------8---------------|
G |----------6/8----------|
D |----6----------7---7---|
A |-7---------------8-----| 	
E |-----------------------|

comments
We did not receive enough feedback on this tab! Please rate:
print report bad tab
1 2 3 4 5
I want to post or [tab]
guest
You may want to rate the tab now too:
select rating
Please do not post tabs as comments. Select "correction" instead!