Oops, an error
Loading. Please wait.

Down We Fall Tab

version 1
version 1

Whole song

Interactive

4,739 views 6 this week
no commentswrite comment
1 2 3 4 5
please rate
add to favorites
launch autoscroll
font size
0
reset
how to read this tab
guitar tuner
Tab Pro tools
  • play this tab
  • loop segment
  • change instrument
  • show fretboard
  • metronome
×
Best way to learn
"Down We Fall"
Autoscroll
slow
fast
+/-
esc
set tempo
stop
Contributor
Drake Bell
Down We Fall
Submitted by: paramore_fans@yahoo.com

Key: Eb

Chords:
Eb -  x68886
Bb -  x13331
Cm -  x35543
G# -  466544
G#m - 466444
G/B - x2x003
B -   x24442
Eb7 - x68686, C# in Bass
C# -  x46664


Intro: Eb-- x2


Verse 1:
Cm          G/B
You were so clever
    Cm        G        Eb
you kept it together today
       Bb
by the way
     Cm       G/B
I no longer ignore you
   Cm        G/B      Eb
I wanted to show you again
          Bb
I'm your friend
    Fm       G#m     Cm  B--
sometimes we just pretend


Chorus 1:
    Eb        Eb7
And all I can say
       G#
is you saved me
Eb             Eb7
chased all the things
          G#
that have made me
Eb           Eb7
entertaining thoughts
            G#          B(hold)
are raining down we fall


Post Chorus 1:
    G#
its all ok when I
    Bb      Eb
say you and I
G#
take your time I can
        Bb      Eb Bb
wait to see you fly


Verse:
    Cm            G/B
You don't have to wonder
  Cm         G/B       Eb
I finally discovered tonight
         Bb
you were right
        Cm            G/B
this is just the beginning
    Cm
its all that I'm
G/B       Eb       Bb
trying to say if I may
       Fm    G#m   Cm B--
you're never in my way


(Repeat Chorus 1)


Post Chorus 2:
    G#
its all ok when I
    Bb      Eb
say you and I
G#
take your time I can
        Bb      Eb Bb B C# Eb(hold)
wait to see you fly


Breakdown: Cm-G/B-Cm-G/B-Eb--Bb--Fm-G#m-Cm-B---


Chorus 2:
    Eb        Eb7
And all I can say
       G#
is you saved me
Eb             Eb7
chased all the things
          G#
that have made me
Eb           Eb7
entertaining thoughts
            G#m
are raining down we fall
Eb           Eb7
entertaining thoughts
            G#m
are raining down we fall
Eb           Eb7
entertaining thoughts
            G#m
are raining down we fall
Eb           Eb7
entertaining thoughts
            G#m
are raining down we fall
Eb           Eb7
entertaining thoughts
            G#m
are raining down we fall
Eb           Eb7
entertaining thoughts
            G#m
are raining down we fall


Guitar Solo:
e|-------------------------------------------------|
B|-------------------------------------------------|
G|-------------------------------------------------|
D|-----------------4---4-6--4----4-6--4----4-6-4---|
A|-6---6-4-6--6--6---6---------6---------6-------6-|
E|---6---------------------------------------------|

e|----------------------------------------------------6-4-3---|
B|----------------------------------------------3-4-6-------4-|
G|----------------------------------------3-5-6---------------|
D|-----------------4---4-6--4----4-6-4------------------------|
A|-6---6-4-6--6--6---6---------6-------6----------------------|
E|---6--------------------------------------------------------|

e|-------------------------------8-----6---------------------|
B|-------------------------------------------8-----6-----6-8-|
G|-----------------------------8---6-8---6-8---6-8---6-8-----|
D|-----------------4---4-6--4--------------------------------|
A|-6---6-4-6--6--6---6---------------------------------------|
E|---6-------------------------------------------------------|

e|--------------------------4-5-6-8-6-------------11-9-11-9-11-|
B|--------------------4-5-6-------8-8-8-6----------------------|
G|--------------6-4-6-----------------8-8-6-8-6-8--------------|
D|--------6-4-6------------------------------------------------|
A|-6-4-6-------------------------------------------------------|
E|-------------------------------------------------------------|

e|-11--11-9-8--------------------------11-----11---------------------|
B|------------11-10-9-8------------8-9----8-9------------------------|
G|----------------------11-10-9-8----------------------------5-6-7-8-|
D|-----------------------------------------------------5-6-8---------|
A|-----------------------------------------------4-6-8---------------|
E|-------------------------------------------------------------------|

e|-----------8-10-11--11-------13--------15--15-------18-16-15-------------|
B|----8-9-11-------------11-13-----11-13--------16-------------14-16-14-16-|
G|-10----------------------------------------------15----------------------|
D|-------------------------------------------------------------------------|
A|-------------------------------------------------------------------------|
E|-------------------------------------------------------------------------|

e|-18-18-------18-18-------18-18-16-15-18-16-15----------------------------------|
B|-------14-16-------14-16----------------------14-16-14-16-15-13----------------|
G|----------------------------------------------------------------16-13-12-------|
D|-------------------------------------------------------------------------11-13-|
A|-------------------------------------------------------------------------------|
E|-------------------------------------------------------------------------------|

e|-------------------15-----------18-16-15-16-15----------------------|
B|----------------16----16-14-16-----------------16-14-16-------------|
G|-------12-13-12-----------------------------------------15----------|
D|-13-15-----------------------------------------------------13-11-13-|
A|--------------------------------------------------------------------|
E|--------------------------------------------------------------------|

e|-------------------------------------------------|
B|-------------------------------------------------|
G|-------------------------------------------------|
D|-----------------4---4-6--4----4-6--4----4-6-4---| x4
A|-6---6-4-6--6--6---6---------6---------6-------6-|
E|---6---------------------------------------------|


Outro:
Eb           Eb7
entertaining thoughts
            G#m(hold)
are raining down we fall
comments
We did not receive enough feedback on this tab! Please rate:
print report bad tab
1 2 3 4 5
I want to post or [tab]
guest
You may want to rate the tab now too:
select rating
Please do not post tabs as comments. Select "correction" instead!