Oops, an error
Loading. Please wait.

Found A Way Bass Tab

version 1
version 1

Whole song

Interactive

2,414 views 1 this week
2 commentsread comments
1 2 3 4 5
2 more votes to show rating
add to favorites
launch autoscroll
font size
0
reset
guitar tuner
Autoscroll
slow
fast
+/-
esc
set tempo
stop
Help us to improve Ultimate-Guitar.com Take our survey!
×
Author
Difficulty
novice
----------------------------------------------------------------------------
 		     Found A Way - Drake Bell
----------------------------------------------------------------------------
Tabbed by: JoJo Gonzales
Email: jojoisajojo@hotmail.com

Tuning: standard

Verse

G|----------------------------------------|
D|----------------------------------------|
A|--7-7-7-7-7-7---------------------------|
E|---------------5-5-5-5-5-5--7-7-7-7-7-7-|


Pre Chours

G|----------------------------------|
D|----------------------------------|
A|--4-4-4-4-----------0-0-0-0--0----|
E|-----------2-2-2-2----------------|


Chours

G|--------------------------------------------------|
D|--------------------------------------------------|
A|--------------------0--------0--------------0---0-|
E|-0--0------2------------------------2-------------|


Interlude
G|---------------------|
D|---------------------|
A|---------------------|
E|--0--00---0-00--0-00-|



Then there is the guitar solo.
Suggest correction
Give kudos to tab author, rate the tab!
1 2 3 4 5
comments
print report bad tab
2 comments total.
0 reply
buzz987 31 Aug 18, 2007 01:46 PM

good tab

0 reply
leithrules 10 Dec 01, 2014 04:22 AM

Lack of accuracy. It sounds way out of key compared to the song it's self.
I am rating it as Poor. hdajsdh hskdhasdhk kdfhsdkfh

guest
You may want to rate the tab now too:
select rating
Wanna post a correction for this tab? Suggest correction