Oops, an error
Loading. Please wait.

Found A Way Tab

version 2
version 2

Whole song

8,244 views 1 this week
4 commentsread comments
1 2 3 4 5
worth learning
x 1
add to favorites
launch autoscroll
font size
0
reset
how to read this tab
guitar tuner
Tab Pro tools
  • play this tab
  • loop segment
  • change instrument
  • show fretboard
  • metronome
×
Best way to learn
"Found A Way"
Autoscroll
slow
fast
+/-
esc
set tempo
stop
Contributor
Difficulty
intermediate
I'm almost sure this is right        Artist:Drake Bell
                                  Song:I Found A Way

-0-0-0-0-0-0-0-------------0-0-0-0-0-0-0--------------|    ~=Let it ring
-0-0-0-0-0-0-0-------------0-0-0-0-0-0-0--------------| -=String(on guitar)
-1-1-1-1-1-1-1---6-6--88-8-1-1-1-1-1-1-1---6-6-88-8---|
-2-2-2-2-2-2-2---7-7--99-9-2-2-2-2-2-2-2---7-7-99-9---|  X3
-2-2-2-2-2-2-2---7-7--99-9-2-2-2-2-2-2-2---7-7-99-9---|
-0-0-0-0-0-0-0---5-5--77-7-0-0-0-0-0-0-0---5-5-77-7---|

When I always thought that i'd be so simple but, I
found a way, i found a way.....and I Always thought i'd
be to crazy but, i found a way, i found a way


----------------------------------------------|
-----5-5555-----------------------------------|
6-66-6-6666---3-333-3-3-3---6-66-6-6-6-66~~~~-|
6-66-6-6666---4-444-4-4-4---7-77-7-7-7-77~~~~-|
4-44-4-4444---4-444-4-4-4---7-77-7-7-7-77~~~~-|
--------------2-222-2-2-2---5-55-5-5-5-55~~~~-|

If you open up your minnnnnnnnd,see whats inside

-------------------------------------------------|
-------------------------------------------------|
-------------------------------------------------|
----2-2-2-2-2--4-4-4-4-4---7-7-7-7-7-7-7-7-------|
----2-2-2-2-2--4-4-4-4-4---7-7-7-7-7-7-7-7-------|
----0-0-0-0-0--2-2-2-2-2---5-5-5-5-5-5-5-5-------|

Its gonna take some time to re-align(background)oh.oh.ohhhhhh


-------------------------------------------------|
-------------------------------------------------|
-------------------------------------------------|
----2-2-2-2-2--4-4-4-4-4---7-7-7-7-7-7-7-7-------|
----2-2-2-2-2--4-4-4-4-4---7-7-7-7-7-7-7-7-------|
----0-0-0-0-0--2-2-2-2-2---5-5-5-5-5-5-5-5-------|

But if you look inside to show your fine(background)oh.oh.ohhhhhhhhh

-------------------------------------------------|
-------------------------------------------------|
-------------------------------------------------|
----2-2-2-2-2--4-4-4-4-4---7-7-7-7-7-7-7-7-------|
----2-2-2-2-2--4-4-4-4-4---7-7-7-7-7-7-7-7-------|
----0-0-0-0-0--2-2-2-2-2---5-5-5-5-5-5-5-5-------|

Over your shoulder you know that I told you I always be pickin you up when-

--------------------------------------------------|
--------------------------------------------------|
--------------------------------------------------|
---4-4-4-4-4-4-4-4-4-4--7-7-7-7-7-7-7-7-7~~~~~~~~-|
---4-4-4-4-4-4-4-4-4-4--7-7-7-7-7-7-7-7-7~~~~~~~~-|
---2-2-2-2-2-2-2-2-2-2--5-5-5-5-5-5-5-5-5~~~~~~~~-|
your down(guitar fill)so just turn arooooond.


-0-0-0-0-0-0-0-0--------------0-0-0-0-0-0-0-------------|
-0-0-0-0-0-0-0-0--------------0-0-0-0-0-0-0-------------|
-1-1-1-1-1-1-1-1---6-6--88-8--1-1-1-1-1-1-1---6-6--88-8-|
-2-2-2-2-2-2-2-2---7-7--99-9--2-2-2-2-2-2-2---7-7--99-9-|
-2-2-2-2-2-2-2-2---7-7--99-9--2-2-2-2-2-2-2---7-7--99-9-|
-0-0-0-0-0-0-0-0---5-5--77-7--0-0-0-0-0-0-0---5-5--77-7-|

Now that I know that any things possible, I found a way, I found a way


-0-0-0-0-0-0-0-0--------------0-0-0-0-0-0-0-------------|
-0-0-0-0-0-0-0-0--------------0-0-0-0-0-0-0-------------|
-1-1-1-1-1-1-1-1---6-6--88-8--1-1-1-1-1-1-1---6-6--88-8-|
-2-2-2-2-2-2-2-2---7-7--99-9--2-2-2-2-2-2-2---7-7--99-9-|
-2-2-2-2-2-2-2-2---7-7--99-9--2-2-2-2-2-2-2---7-7--99-9-|
-0-0-0-0-0-0-0-0---5-5--77-7--0-0-0-0-0-0-0---5-5--77-7-|

No one can break whats so un-breakable, I found a way, I found a way


----------------------------------------------|
-----5-5555-----------------------------------|
6-66-6-6666---3-333-3-3-3---6-66-6-6-6-66~~~~-|
6-66-6-6666---4-444-4-4-4---7-77-7-7-7-77~~~~-|
4-44-4-4444---4-444-4-4-4---7-77-7-7-7-77~~~~-|
--------------2-222-2-2-2---5-55-5-5-5-55~~~~-|

If you open up your minnnnnnnnd,see whats inside


-------------------------------------------------|
-------------------------------------------------|
-------------------------------------------------|
----2-2-2-2-2--4-4-4-4-4---7-7-7-7-7-7-7-7-------|
----2-2-2-2-2--4-4-4-4-4---7-7-7-7-7-7-7-7-------|
----0-0-0-0-0--2-2-2-2-2---5-5-5-5-5-5-5-5-------|

Its gonna take some time to re-align(background)oh.oh.ohhhhhh


-------------------------------------------------|
-------------------------------------------------|
-------------------------------------------------|
----2-2-2-2-2--4-4-4-4-4---7-7-7-7-7-7-7-7-------|
----2-2-2-2-2--4-4-4-4-4---7-7-7-7-7-7-7-7-------|
----0-0-0-0-0--2-2-2-2-2---5-5-5-5-5-5-5-5-------|

But if you look inside to show your fine(background)oh.oh.ohhhhhhhhh


-------------------------------------------------|
-------------------------------------------------|
-------------------------------------------------|
----2-2-2-2-2--4-4-4-4-4---7-7-7-7-7-7-7-7-------|
----2-2-2-2-2--4-4-4-4-4---7-7-7-7-7-7-7-7-------|
----0-0-0-0-0--2-2-2-2-2---5-5-5-5-5-5-5-5-------|

Over your shoulder you know that I told you I always be pickin you up when-

-------------------------------------------------|
-------------------------------------------------|
-------------------------------------------------|
---4-4-4-4-4-4-4-4-4-4--7-7-7-7-7-7-7-7-7--------|
---4-4-4-4-4-4-4-4-4-4--7-7-7-7-7-7-7-7-7--------|
---2-2-2-2-2-2-2-2-2-2--5-5-5-5-5-5-5-5-5--------|
your down(guitar fill)so just turn arooooond.

---------------------------------------------------|
---------------------------------------------------|
------9-9---9-9---9-9-Drum fill-----9-9---9-9--9-9-|
------9-9---9-9---9-9-Drum fill-----9-9---9-9--9-9-|
------7-7---7-7---7-7-Drum fill-----7-7---7-7--7-7-|
------0-0---0-0---0-0-Drum fill-----0-0---0-0--0-0-|

No one Cares, what ya get, you know you gotta live like you wanna live


---------------------------------------------------|
---------------------------------------------------|
------9-9---9-9---9-9-Drum fill-----9-9---9-9--9-9-|
------9-9---9-9---9-9-Drum fill-----9-9---9-9--9-9-|
------7-7---7-7---7-7-Drum fill-----7-7---7-7--7-7-|
------0-0---0-0---0-0-Drum fill-----0-0---0-0--0-0-|

When it's time, to be free, you know you gotta be what you wanna be


I forgot the solo

----------------------------------------------|
-----5-5555-----------------------------------|
6-66-6-6666---3-333-3-3-3---6-66-6-6-6-66~~~~-|
6-66-6-6666---4-444-4-4-4---7-77-7-7-7-77~~~~-|
4-44-4-4444---4-444-4-4-4---7-77-7-7-7-77~~~~-|
--------------2-222-2-2-2---5-55-5-5-5-55~~~~-|

If you open up your minnnnnnnnd,see whats inside


-------------------------------------------------|
-------------------------------------------------|
-------------------------------------------------|
----2-2-2-2-2--4-4-4-4-4---7-7-7-7-7-7-7-7-------|
----2-2-2-2-2--4-4-4-4-4---7-7-7-7-7-7-7-7-------|
----0-0-0-0-0--2-2-2-2-2---5-5-5-5-5-5-5-5-------|

Its gonna take some time to re-align(background)oh.oh.ohhhhhh


-------------------------------------------------|
-------------------------------------------------|
-------------------------------------------------|
----2-2-2-2-2--4-4-4-4-4---7-7-7-7-7-7-7-7-------|
----2-2-2-2-2--4-4-4-4-4---7-7-7-7-7-7-7-7-------|
----0-0-0-0-0--2-2-2-2-2---5-5-5-5-5-5-5-5-------|

But if you look inside to show your fine(background)oh.oh.ohhhhhhhhh


-------------------------------------------------|
-------------------------------------------------|
-------------------------------------------------|
----2-2-2-2-2--4-4-4-4-4---7-7-7-7-7-7-7-7-------|
----2-2-2-2-2--4-4-4-4-4---7-7-7-7-7-7-7-7-------|
----0-0-0-0-0--2-2-2-2-2---5-5-5-5-5-5-5-5-------|

Over your shoulder you know that I told you I always be pickin you up when-

-------------------------------------------------|
-------------------------------------------------|
-------------------------------------------------|
---4-4-4-4-4-4-4-4-4-4--7-7-7-7-7-7-7-7-7--------|
---4-4-4-4-4-4-4-4-4-4--7-7-7-7-7-7-7-7-7--------|
---2-2-2-2-2-2-2-2-2-2--5-5-5-5-5-5-5-5-5--------|
your down(guitar fill)so just turn arooooond.
oh oh oh oh ohhhhhhhhh

Please rate and comment
comments
We did not receive enough feedback on this tab! Please rate:
print report bad tab
1 2 3 4 5
4 comments total. Showing first comments.
0 reply
aznguitarist123 wrote on November 12 2007, 04:53 pm

What do you mean you forgot the solo?
why didn't you write it down????

0 reply
hair2show wrote on November 25 2007, 08:46 pm

Because I am 10 and I looked at videos with people who did the solo but I couldn't figure it out, but I hope this helps
anyway.

+1 reply
bolbi6 wrote on January 19 2008, 05:43 pm

its ok not really correct its supost to go minor on chorus

I want to post or [tab]
guest
You may want to rate the tab now too:
select rating
Please do not post tabs as comments. Select "correction" instead!