Oops, an error
Loading. Please wait.

Golden Days Tab

version 2
version 2

Whole song

715 views 3 this week
no commentswrite comment
1 2 3 4 5
2 more votes to show rating
add to favorites
launch autoscroll
font size
0
reset
how to read this tab
guitar tuner
Autoscroll
slow
fast
+/-
esc
set tempo
stop
Help us to improve Ultimate-Guitar.com Take our survey!
×
Difficulty
intermediate
e------------------------------------------------------|
B------------------------------------------------------|
G---12-12-12--11-11-11-11--12-12-14--11-11-11-11-------|
D---12-12-12--11-11-11-11--12-12-14--11-11-11-11-------|
A---10-10-10--9--9--9--9---10-10-12--9--9--9--9--------|
E------------------------------------------------------|

e------------------------------------------------------|
B------------------------------------------------------|
G---11-11-11-11--7-7-7-7--11-11-11-11--7-7-7-7---------|
D---11-11-11-11--7-7-7-7--11-11-11-11--7-7-7-7---------|
A---9--9--9--9---5-5-5-5--9--9--9--9---5-5-5-5---------|
E------------------------------------------------------|

Suggest correction
Give kudos to tab author, rate the tab!
1 2 3 4 5
comments
print report bad tab
guest
You may want to rate the tab now too:
select rating
Wanna post a correction for this tab? Suggest correction