Oops, an error
Loading. Please wait.

Highway To Nowhere Tab

5,021 views 1 this week
no commentswrite comment
1 2 3 4 5
x 4
add to favorites
launch autoscroll
font size
0
reset
how to read this tab
guitar tuner
Autoscroll
slow
fast
+/-
esc
set tempo
stop
Help us to improve Ultimate-Guitar.com Take our survey!
×
Difficulty
novice
intro

e-----------------------|
b-----------------------|
g-----------------------|
d-----5--7--8---8--7--5-|
a-----5--7--8---8--7--5-|
E-----3--5--6---6--5--3-|

same for verse

Chorus

e--------------------------------------------------|
b--------------------------------------------------|
g--------3--5-----3--5----5----7--------5----------|
d-----6--3--5--6--3--5----5----7--------5--5--7--3-|
a-----6--1--3--6--1--3----3----5--------3--5--7--3-|
E-----4--------4---------------------------3--5--1-|
Suggest correction
comments
print report bad tab
guest
You may want to rate the tab now too:
select rating
Wanna post a correction for this tab? Suggest correction