Oops, an error
Loading. Please wait.

Hollywood Girl Tab

version 2
version 2

Whole song

Interactive

11,106 views 1 this week
2 commentsread comments
1 2 3 4 5
accurate
x 3
add to favorites
launch autoscroll
font size
0
reset
how to read this tab
guitar tuner
Tab Pro tools
  • play this tab
  • loop segment
  • change instrument
  • show fretboard
  • metronome
×
Best way to learn
"Hollywood Girl"
Autoscroll
slow
fast
+/-
esc
set tempo
stop
Difficulty
novice
Intro/Verse
|---------------------------|----| 
|---------------------------|--0-|
|---------------------------|--2-| 
|---------------------------|--2-|
|--4-----77-5-4-------------|--0-| 
|----555---------(5)—(5)—(5)|----| 
           


Gtr. 2
Intro/Verse
|--------|----| 
|--------|--0-|
|--------|--2-| 
|--7--77-|--2-| 
|--7--77-|--0-| 
|--------|----|
 

Pre Chorus
|--------------------------|------------------------|
|--------------------------|------------------------|
|-6--6--6--6---7--7--7--7--|-2--2--2--2-------------|
|-6--6--6--6---7--7--7--7--|-2--2--2--2-------------|
|-4--4--4--4---5--5--5--5--|-0--0—-0—-0-------------|
|--------------------------|-------------(555777999)|


Chorus
|-----------------------------------------------------------------|
|-----------------------------------------------------------------|
|-7-7-7-7--2-2-2-2-----------6-6-6-6--7-7-7-7--2-2-2-2-2-2-2-2----|
|-7-7-7-7--2-2-2-2--4-4-4-4--6-6-6-6--7-7-7-7--2-2-2-2-2-2-2-2----|
|-5-5-5-5--0-0-0-0--4-4-4-4--4-4-4-4--5-5-5-5--0-0-0-0-0-0-0-0----|
|-------------------2-2-2-2---------------------------------------|

Interlude
|-------------------|---------|
|-------------------|---------|
|-------------------|---------|
|-----------4-4-4-4-|--4---6--|
|-4-4-4-4---4-4-4-4-|--4---6--|
|-4-4-4-4---2-2-2-2-|--2---4--|
|-2-2-2-2-----------|---------|

The numbers in the parenthesis mean when you play 
that segment for the last time you skip what’s in 
there.
comments
We did not receive enough feedback on this tab! Please rate:
print report bad tab
1 2 3 4 5
2 comments total.
+1 reply
Sam Rulez D00d wrote on August 21 2008, 08:17 pm

these are the chords in the chorus:
|-0-0-0-0-0-0-0-|
|-3-0-0-0-3-0-0-|
|-2-2-x-6-2-2-1-|
|-0-2-4-6-0-2-2-|
|-0-0-4-4-0-0-2-|
|-x-0-2-x-x-0-0-| better than ver 1. good job!

+1 reply
Sam Rulez D00d wrote on August 21 2008, 08:24 pm

...and on drake & josh drake plays this in the intro:
Gtr II
PM--| PM-| PM|<
|---------------0--|
|---------------0--|
|-2-2-2-2-2-2-2-2--|
|-2-2-2-2-2-2-2-2--|
|-0-0-0-0-0-0-0-0--|
|---------------0--|

I want to post or [tab]
guest
You may want to rate the tab now too:
select rating
Please do not post tabs as comments. Select "correction" instead!