Oops, an error
Loading. Please wait.

I Found A Way Bass Tab

version 1
version 1

Whole song

Interactive

6,341 views 21 this week
1 commentread comment
1 2 3 4 5
x 3
add to favorites
launch autoscroll
font size
0
reset
guitar tuner
Autoscroll
slow
fast
+/-
esc
set tempo
stop
Help us to improve Ultimate-Guitar.com Take our survey!
×
Difficulty
novice
intro

G|-8/10-8------------------88--|
D|---------10-8-6-----6-88-----|
A|-----------------------------|
E|-----------------------------|

Verse

G|-----8---------------|
D|------8--------------|
A|-6666----------------|
E|---------4444-6666---|


Pre chours

G|-------------------|
D|----------------6--|
A|-3333--------------|
E|------1111-4444----|

Chorus

G|------------------------|
D|------------------------|
A|-6666-------------------|
E|------1111-44444444-----|

G|------------------------|
D|------------------------|
A|-6666-------------------|
E|------1111-44444444-----|


G|---------------------------------------------|
D|---------------------------------------------|
A|-6666---------------------------------6666---|
E|------1111-44444444-11111111-44444444--------|



Interlude

G|------------------------|
D|------------------------|
A|-6666-4-6666--4-6666----|
E|------------------------|

Solo (verse)
Suggest correction
Give kudos to tab author, rate the tab!
1 2 3 4 5
comments
print report bad tab
1 comment total.
0 reply
AdamHasFriends 10 Jan 11, 2013 04:51 PM

A good tab for a good song! Thanks!

guest
You may want to rate the tab now too:
select rating
Wanna post a correction for this tab? Suggest correction