Oops, an error
Loading. Please wait.

I Found A Way Tab

version 1
version 1

Whole song

Interactive

26,244 views 3 this week
5 commentsread comments
1 2 3 4 5
x 12
add to favorites
launch autoscroll
font size
0
reset
how to read this tab
guitar tuner
Autoscroll
slow
fast
+/-
esc
set tempo
stop
Help us to improve Ultimate-Guitar.com Take our survey!
×
Author
Difficulty
intermediate
this song has three parts which are repeated
verse
chorus
solo

i will work on the solo but at the moment i know the verse and chorus


tuning = down half a step
verse
|---------------------------------------------------|
|---------------------------------------------------|
|--------9-----------9------------------------------|
|--------9-----------9-----------7-----------9------|
|--7--7--7--7--7--7--7--7--------7-----------9------|
|--------------------------5--5--5--5--7--7--7--7---|     x4

pre chorus

|-------------------------------------------------5--|
|-----------5-------------------------------------5--|
|-----6--------------------3--------------6-------5--|
|--------6-----------4--------------7-------------7--|
|--4--------------------4--------------7----------7--|
|-----------------2--------------5----------------5--|

chorus
                                          x3(on third time play through)
|--00000000--22222222--55555555--55555555---|--2222222222222222------|
|o-00000000--22222222--55555555--55555555-0-|--2222222222222222------|
|--11111111--33333333--66666666--66665555---|--3333333333333333------|
|--22222222--44444444--77777777--77777777---|--4444444444444444------|
|o-22222222--44444444--77777777--77777777-o-|--4444444444444444------|
|--00000000--22222222--55555555--55555555---|--2222222222222222------|

                                           hold for 4 beats
--55555555--x--5--x--5--x--5--x--5--x--5--0----|
--55555555--x--5--x--5--x--5--x--5--x--5--0----|
--66666666--x--5--x--5--x--5--x--5--x--5--1----|
--77777777--x--7--x--7--x--7--x--7--x--7--2----|
--77777777--------------------------------2----|
--55555555--------------------------------0----|
Suggest correction
comments
print report bad tab
5 comments total. Showing first comments.
+1 reply
leid sepplin 80 Nov 19, 2006 01:35 PM

not accurate

0 reply
bolbi6 32 Sep 04, 2007 12:53 PM

very taribble if u want the real version ge to nick.com/turbonick and then search under guitar then it will say guitatr leasions with drake bell

0 reply
bolbi6 32 Sep 04, 2007 12:54 PM

u want the fist leason

guest
You may want to rate the tab now too:
select rating
Wanna post a correction for this tab? Suggest correction