Oops, an error
Loading. Please wait.

I Know Tab

14,851 views 15 this week
5 commentsread comments
1 2 3 4 5
please rate
add to favorites
launch autoscroll
font size
0
reset
how to read this tab
guitar tuner
Autoscroll
slow
fast
+/-
esc
set tempo
stop
Help us to improve Ultimate-Guitar.com Take our survey!
×
Author
Difficulty
intermediate
this is a really awesome song by drake. this is a first for me so be patient people lol. 
may need to use your thumb for bass on the chord after G on the intro. It's easier. 
Luck!

Intro:
just G chord a few times

Verse:
e|--3---3---3---3---3--|
B|--3---3---3---5---4--|
G|--4---4---4---5---5--| x2
D|--5---4---3---5---5--|
A|--5---X---5---3---3--|
E|--3---3---3----------|


Pre-Chorus:
e|--7---7---7------|
B|--8---8---8---2--|
G|--9---9---7---2--| x2
D|--9---9---9---2--|
A|--7---6---7------|
E|-----------------|

find out...cheating
e|-------2--|
B|---1---3--|
G|---2---2--|
D|---2------|
A|----------|
E|----------|


Chorus:
e|---3---7---7---7---3---3--|
B|---3---7---8---8---5---4--|
G|---4---8---9---7---5---5--|x2
D|---5---7---9---9---5---5--|
A|---5---9---7---7---3---3--|
E|---3---7------------------|

hopefully u can use this to get the rest of the song because its the same chords. if u 
me to keep going just message me no problem. I know its acurrate because i learned it 
watching drake play on trl a million times and i saw and heard every chord he used.

REMEMBER: if u dont look at where ur fingers need to be on some of the transitions u 
get it wrong. PAY ATTENTION. thx

Ty
Suggest correction
Give kudos to tab author, rate the tab!
1 2 3 4 5
comments
print report bad tab
5 comments total. Showing first comments.
0 reply
k0p4n 10 wrote on March 19 2007, 07:25 pm

3x4433 doesnt sound right

0 reply
blakeeaton 40 wrote on April 21 2007, 08:20 am

If you could please include the rest of the song and if you could put the words on top of the chords, that'd be awesome.

0 reply
bolbi6 32 wrote on September 14 2007, 05:00 pm

omg tarriblse loom at chords for right chords lol

guest
You may want to rate the tab now too:
select rating
Please do not post tabs as comments. Select "correction" instead!