Oops, an error
Loading. Please wait.

I Know Bass Tab

version 2
version 2

Whole song

518 views 1 this week
no commentswrite comment
1 2 3 4 5
3 more votes to show rating
add to favorites
launch autoscroll
font size
0
reset
guitar tuner
Autoscroll
slow
fast
+/-
esc
set tempo
stop
Help us to improve Ultimate-Guitar.com Take our survey!
×
Verse 1
-------------------------------------------------------------------|
-------------------------------------------------------------------|
-----------------------0-2-3---3-3---3-4-3-6-6--6/-----------------|
-3---3-3--3-3--3-3---3---------------------------------------------|

pre-chorus

----------------0---0--------------|
------------------4----------------|
-------2--2-2-2--------7-5-0-0-0-0-|
-0-0-0-----------------------------|

----------------------|
---------0-0-0-0------|
-0-0-0-0--------------|
----------------------|

chorus

--------------------------------------------------------------------|
--------------------------------0-----------------------------------|
-----------0-2-3--2-2-2-2-2-3-3---3-----------------3-3-3-3-3-3-3-3-|
-3-3-3-3-3--------------------------0-0-0-0-3-3-3-3-----------------|

2nd Time end

---------|
---------|
---------|
--3------|

verse 2

-----------------------------------------------------|
-----------------------------------------------------|
------------------------0-2-3---3-3---3-5-3-6-6--6/--|
-3---3-3--3-3-3--3-3--3------------------------------|

pre chours

----------------0-------------------------|
------------------------------------------|
-------2--2-2-2---------------------------|
-0-0-0------------3-3-3-3-5-5-5-5-5-5-5-5-|

----------------------|
---------0-0-0-0------|
-0-0-0-0--------------|
----------------------|

chorus

--------------------------------------------------------------------|
--------------------------------0-----------------------------------|
-----------0-2-3--2-2-2-2-2-3-3---3-----------------3-3-3-3-3-3-3-3-|
-3-3-3-3-3--------------------------0-0-0-0-3-3-3-3-----------------|

bridge

---------------------------------|
---------------------------------|
-7-7-77--6-6-66--5-5-55--0-0-00--|
---------------------------------|

Then

-------------------|
---------0-0-0-0---|
-0-0-0-0-----------|
-------------------|

chorus


--------------------------------------------------------------------|
--------------------------------0-----------------------------------|
-----------0-2-3--2-2-2-2-2-3-3---3-----------------3-3-3-3-3-3-3-3-|
-3-3-3-3-3--------------------------0-0-0-0-3-3-3-3-----------------|


ending

-----------------------------------------------|
---------0-0-0-0---------0-0-0-0---------------|
-----------------------------------------------|
-3-3-3-3---------3-3-3-3---------3----------3--|
Suggest correction
Give kudos to tab author, rate the tab!
1 2 3 4 5
comments
print report bad tab
guest
You may want to rate the tab now too:
select rating
Wanna post a correction for this tab? Suggest correction