Oops, an error
Loading. Please wait.

Its Only Time Tab

version 1
version 1

Whole song

5,204 views 6 this week
2 commentsread comments
1 2 3 4 5
excellent!
x 6
add to favorites
launch autoscroll
font size
0
reset
how to read this tab
guitar tuner
Autoscroll
slow
fast
+/-
esc
set tempo
stop
Help us to improve Ultimate-Guitar.com Take our survey!
×
Difficulty
novice
This tab is 97% correct, it sounds exactly like the song


Chords:
E - (x799xx)
A - (577655)
B - (799877)


Tuning: E A D G B E


Intro:

    E            A
e-----------------------------|
b-----------------------------|
g---9-9-9-9-9-11--------------|
d---9-9-9-9-9-11-7-7-7-7-7-7--|  x2
a---7-7-7-7-7-9--7-7-7-7-7-7--|
e----------------5-5-5-5-5-5--|


Verse:

E             A
Where did you go when i arrived...

and so on

(on electric guitar palm mute them in power chords)


Pre-Chorus:

E          A
She said I wasn't even here,

E          A
She said I wasn't even...


Chorus:

E         A       B
It's only time, until you find out

E         A       B
It's only time, until you find out


Bridge:

e-------------------------------------|
b-------------------------------------|
g--9-9--11--11-11-11-13-13-13-11-9----|
d--9-9--11--11-11-11-13-13-13-11-9----|  x2
a--7-7--9---9--9--9--11-11-11-9--7----|
e-------------------------------------|


e-------------------------------------------------------|
b-------------------------------------------------------|
g--8-9-9-9-9-8-9-9-9-9-12-13-13-13-13-12-13-13-13-13----|
d--x-x-x-x-x-x-x-x-x-x-x--x--x--x--x--x--x--x--x--x-----|
a--6-7-7-7-7-6-7-7-7-7-10-11-11-11-11-10-11-11-11-11----|
e-------------------------------------------------------|

well there you have it, a great drake bell song
I post the solo if i ever learn it.
Suggest correction new What's this?
You can suggest a correction to this tab. Community and Mods will review your correction and vote to approve or reject it.
comments
print report bad tab
2 comments total.
0 reply
boysontour2006 232 wrote on January 8 2008, 02:47 pm

I find it more closer to the song in my opinion when you use these chords instead of the ones
given
---2-4-
-2-2-4-
-2-0-2-
-0-----
E A B

0 reply
drakebellfan 406 wrote on April 1 2008, 11:44 am

correct me if im wrong but this is what i figured out for the solo part (all on the high e string)
12-12-12-12-12-12-12-12-12-12-12-12-12-12-12-12-12-12-11-11-9-9-7-7-7-7-7-7-7-7
12-12-12-12-11-11-11-7-7-7-7-7-7-7-7-5-5-2-4-0

guest
You may want to rate the tab now too:
select rating
Please do not post tabs as comments. Select "correction" instead!