Oops, an error
Loading. Please wait.

Somehow Acoustic chords

version 4
version 4

Interactive

1,690 views 6 this week
no commentswrite comment
1 2 3 4 5
x 3
add to favorites
×
Save as Personal and add changes to this tab that will be seen only by you. Learn more ›
×
You can save this tab as Personal to edit and correct it or add notes. All changes will be seen only by you. Learn more »
launch autoscroll
font size
0
reset
transpose
0
reset
simplify chords
display chords
guitar tuner
edit
Autoscroll
slow
fast
+/-
esc
set tempo
stop
Author
Difficulty
Strumming
There is no strumming pattern for this song yet. and get +5 IQ
Somehow (Acoustic) - Drake Bell

I'm 99% sure this is right.

Chords Used:
  Em   B7  Cdim7 Em7 *Em   Am  Cmaj9  C   C7    G   G7   Em6  *G   *G7
e|-0----2----x----7----7----0----0----0----0----3----1----x----3----3-|
B|-2----0----4----8----8----1----1----1----1----3----0----5----3----3-|
G|-2----2----2----7----9----2----0----0----3----0----0----4----4----4-|
D|-0----1----4----9----9----2----0----2----2----0----0----5----5----3-|
A|-0----2----3----7----7----0----2----3----3----2----2----4----5----5-|
E|-0----x----x----7----7----x----x----x----x----3----3----x----3----3-|


*IMPORTANT NOTES* 
The * before certain chords means that the chord is in a different position.

See "Chords Used" to find the correct chord position.

When you play Em7 strum all 6 strings barred on the seventh fret, then hammer on 
the middle and ring finger. Like this:

e|-7-----7-7--|
B|-7-H8--8-8--|
G|-7-----7-7--|
D|-7-H9--9-9--|
A|-7-----7-7--|
E|-7-----7-7--|



Em B7 Cdim7 Em Em7
Em B7 Cdim7 *Em


Em                B7
She stares at the moon
Cdim7              Em
Her ribbons out of tune
Em                  B7
The memories of the past
Cdim7                Em   Em7
At the bottom of her glass


Em                 B7
And resting on her cheek
Cdim7              Em
The imprint of his ring
Em              B7
A symbol of the weak
Cdim7              *Em
Commissioned by the king


Am          Cmaj9 C   Cmaj9
Did he tie you down
Am          Cmaj9 C   C7
Did you make a sound


G    B7          Em              C
She falls to her knees, screaming God please
G       B7       Em    C
Make something of me
          G                           G7                     C
'cause I've never wanted anything like what I wanna be right now
  Em6              C
An angel again, An angel again, Somehow


Em B7 Cdim7 Em Em7
Em B7 Cdim7 *Em


Em                    B7
She remembers his old boots
Cdim7                   Em
And the shotgun that he shoots
Em                     B7
And all that she could take
Cdim7                  *Em
Lies at the bottom of a lake


Em                   B7
So lift your sig and drag 
Cdim7               Em
As you figure out a plan
Em             B7
To hide it all away
Cdim7                        Em
How could you ever love this man


Am           Cmaj9 C    Cmaj9
Did you weigh him down
Am          Cmaj9 C   C7
Did he make a sound


G    B7          Em             C
She falls to her knees, sceeming God please
G       B7        Em    C
Make something of me
          *G                           *G7                   C
'cause I've never wanted anything like what I wanna be right now
  Em6              C
An angel again, An angel again, Somehow


              And when you carry weight in your life
e|-0xx0xx0xx--0---0----0---0xx0xx0xx----0--0----0| 
B|-1xx1xx1xx--1---1----1---1xx1xx1xx----1--1----1|
G|-2xx2xx2xx--2---2----0---0xx0xx0xx----0--0----2|
D|-2xx2xx2xx--2---2----0---2xx2xx2xx----2--0----2|
A|-0xx0xx0xx--0---0----2---3xx3xx3xx----3--2----0|
E|---------------------0-------------------0-----|

              And all the plans you make in your life
e|-0xx0xx0xx--0---0----0---0xx0xx0xx-----0--0----0| 
B|-1xx1xx1xx--1---1----1---1xx1xx1xx-----1--1----1|
G|-2xx2xx2xx--2---2----0---0xx0xx0xx-----0--0----2|
D|-2xx2xx2xx--2---2----0---2xx2xx2xx-----2--0----2|
A|-0xx0xx0xx--0---0----2---3xx3xx3xx-----3--2----0|
E|---------------------0--------------------0-----|

              The original decision was right
e|-0xx0xx0xx--0---0-0-0-0-0-0-000-0-0-0-0-0-0|
B|-1xx1xx1xx--1---1-1-1-1-1-1-111-1-1-1-1-1-1|
G|-2xx2xx2xx--2---0-0-0-0-0-0-333-3-3-3-3-3-3|
D|-2xx2xx2xx--2---0-2-2-2-2-2-222-2-2-2-2-2-2|
A|-0xx0xx0xx--0---2-3-3-3-3-3-333-3-3-3-3-3-3|
E|----------------0-0-0-0-0-0-000-0-0-0-0-0-0|


        She falls to her knees, sceeming God please
e|-333-3-x--x-222-2--x--x-000-0-x--x-000-0-0-0-0-0-0|
B|-333-3-x--x-000-0--x--x-000-0-x--x-111-1-1-1-1-1-1|
G|-000-0-x--x-222-2--x--x-000-0-x--x-000-0-0-0-0-0-0|
D|-000-0-x--x-111-1--x--x-222-2-x--x-222-2-2-2-2-2-2|
A|-222-2-x--x-222-2--x--x-222-2-x--x-333-3-3-3-3-3-3|
E|-333-3-x--x--------x--x-000-0-x--x----------------|

G       B7        Em    C
Make something of me
          *G                           *G7                   C
'cause I've never wanted anything like what I wanna be right now
  Em6              C
An angel again, An angel again,
  Em6              C    C7
An angel again

e|-0--------------|
B|--0-------------|
G|---0------------|
D|----2-----------|
A|-----2----------|
E|------0---00000-|

The End. Please rate and/or comment.

            
            
Suggest correction
Creating personal tab
Creating personal tab
You can edit any tab online and save it as your Personal.

You can edit, replace or remove any tab part or add personal notes – all changes will be seen only by you.

Personal tabs can be accessed anytime from any device, even offline.
Learn more »
Give kudos to tab author, rate the tab!
1 2 3 4 5
comments
print report bad tab
guest
You may want to rate the tab now too:
select rating
Wanna post a correction for this tab? Suggest correction