Oops, an error
Loading. Please wait.

The Book Of Heavy Metal intro tab

version 2
version 2

Intro

Whole song

Interactive

4,660 views 1 this week
2 commentsread comments
1 2 3 4 5
3 more votes to show rating
add to favorites
×
Save as Personal and add changes to this tab that will be seen only by you. Learn more ›
×
You can save this tab as Personal to edit and correct it or add notes. All changes will be seen only by you. Learn more »
launch autoscroll
font size
0
reset
how to read this tab
guitar tuner
edit
Autoscroll
slow
fast
+/-
esc
set tempo
stop
-------------------------------------------------------------------------------
			The Book Of Heavy Metal - Dream Evil
-------------------------------------------------------------------------------
Tabbed by: Lordofmetal
Email:inewland53@hotmail.com

Tuning: Drop D
Heavy Distortion
		                  	    
This is my first tab, I believe what I have is almost 100% correct.                          
                               



intro/verse/chorus

(p.m)  ..        ..    ..                                                
|----------------------------------------------------------------------------|
|----------------------------------------------------------------------------|
|--3/5-----6\5-3/5-----6\5---------------------------------------------------|
|--3/5-----6\5-1/5-----6\5---------------------------------------------------|  Note: Played 10 times
|--1/3-----4\3-1/3-----4\3---------------------------------------------------|         for intro.
|------0-0---------0-0-----0-0-0-0-------------------------------------------|


Pre-chorus

(all is played in p.m)
|----------------------------------------------------------------------------|
|----------------------------------------------------------------------------|
|--77777777-88888888-77777777-55555555-77777777-88888888--1010101010101010\--|
|--77777777-88888888-77777777-55555555-77777777-88888888--1010101010101010\--|
|--55555555-66666666-55555555-33333333-55555555-66666666--8 8 8 8 8 8 8 8 \--|
|----------------------------------------------------------------------------|

These are the main parts for the song.

| /  slide up
| \  slide down
| h  hammer-on
| p  pull-off
| ~  vibrato
| +  harmonic
| x  Mute note
==============================================================



            
            
Suggest correction
Creating personal tab
Creating personal tab
You can edit any tab online and save it as your Personal.

You can edit, replace or remove any tab part or add personal notes – all changes will be seen only by you.

Personal tabs can be accessed anytime from any device, even offline.
Learn more »
Give kudos to tab author, rate the tab!
1 2 3 4 5
comments
print report bad tab
2 comments total.
0 reply
pentagram_man63 110 Feb 05, 2006 09:24 AM

The open d's in the intro are actually c's and the pre chorus is out of key... not bad for a first try tho.

0 reply
littleleo88 223 Jun 21, 2007 01:36 AM

have you never heard of detuning your guitar. its CGCFAD

guest
You may want to rate the tab now too:
select rating
Wanna post a correction for this tab? Suggest correction