Oops, an error
Loading. Please wait.

The End Tab

540 views 1 this week
no commentswrite comment
1 2 3 4 5
please rate
add to favorites
launch autoscroll
font size
0
reset
how to read this tab
guitar tuner
Autoscroll
slow
fast
+/-
esc
set tempo
stop
Help us to improve Ultimate-Guitar.com Take our survey!
×
Author
-------------------------------------------------------------------------------
                             Dream Evil - The End
-------------------------------------------------------------------------------
Tabbed by: Jonbon207

Tuning: Drop D

()= natural harmonic

Intro:

e|------1----------------1----------|
B|---------3----------------3-------|
G|----2------2--------2-------2-----|
D|----------------------------------|
A|----------------------------------|
D|-0---------------0----------------|


Verse:

e|-----1------------0------------1------------0------------1----------0-----|
B|--------3------1----1-------------3------1----1---1---------3-----1---1---|
G|---2------------------0-----2-------------------0------2----------------0-|
D|-------------2-------------------------2------------------------2---------|
A|-----------3-------------------------3------------------------3-----------|
D|-0-----------------------0---------------------------0--------------------|

e|------------------------------|
B|------------------------------|
G|-----3---2--------------------|
D|---3-------3----------(5)-----|
A|-1--------------------(5)-----|
D|-------------3--0-----(5)-----|


e|-----1------------0------------1------------0------|
B|--------3------1----1-------------3------1----1----|
G|---2------------------0-----2-------------------0--|
D|-------------2-------------------------2-----------|
A|-----------3-------------------------3-------------|
D|-0-----------------------0-------------------------|

e|-------------------------------------------------------------------|
B|-----3------------5-------------------------------2----------3---5-|
G|-------------5------5-------------1-----------2-----2--------3---5-|
D|---3-------5---5------5-------3-----3-------2---2------------3---5-|
A|-1-----1/3--------------3---3---3-----3---0--------------0-1-----3-|
D|--------------------------3-------------3--------------5-----------|


Chorus:

e|-----------------------------------------|
B|-----------------------------------------|
G|-----------------------------------------|
D|--5/7-9--10\9-7-5-----5--7--5--3-----5---|
A|--3/5-7--8-\7-5-3--3--3--5--3--1--3--3---|
D|-------------------3--------------3------|

e|--------------------------------------------|
B|--------------------------------------------|
G|--------------------------------------------|
D|--5/7-9--10\9-7-5-----5---7-7--5--3-----5---|
A|--3/5-7--8-\7-5-3--3--3---5-5--3--1--3--3---|
D|-------------------3-----------------3------|


Repeat Intro, Verse, & Chorus


Solo:

Rhythm

e|-------------------|
B|-------------------|
G|-------------------|
D|----------------5--|
A|--7-5-7--5-7-8--3--|
D|--7-5-7--5-7-8-----|

e|------------------------------------------|
B|------------------------------------------|
G|------------------------------------------|
D|-7---5-5-5-------3-3-3---------7--5-5-5---|
A|-5---3-3-3--3-3--1-1-1--3-2-0--5--3-3-3---|
D|------------3-3---------3-2-0-------------|

e|-------------------------------|
B|-------------------------------|
G|-------------------------------|
D|-------------------5-----------|
A|--7--7-5-7--5-7-8--3-----------|
D|--7--7-5-7--5-7-8--------------|


Chorus:

e|-----------------------------------------|
B|-----------------------------------------|
G|-----------------------------------------|
D|--5/7-9--10\9-7-5-----5--7--5--3-----5---|
A|--3/5-7--8-\7-5-3--3--3--5--3--1--3--3---|
D|-------------------3--------------3------|

e|-----------------------------------------|
B|-----------------------------------------|
G|-----------------------------------------|
D|--7-9-11-12-11-9----7--9-9--7--5-----7---|
A|--5-7-9--10-9--7-5--5--7-7--5--3--5--5---|
D|-----------------5----------------5------|

e|--------------------------------------------|
B|--------------------------------------------|
G|--------------------------------------------|
D|--7/9-11-12\11-9-7-----7--9-9--7--5---------|
A|--5/7-9--10\9--7-5--5--5--7-7--5--3--5--0---|
D|--------------------5----------------5--0---|

e|--------------------------------------------|
B|--------------------------------------------|
G|--------------------------------------------|
D|--7/9-11-12\11-9-7-----7--9-9--7--5---------|
A|--5/7-9--10\9--7-5--5--5--7-7--5--3--5--0---|
D|--------------------5----------------5--0---|

e|--------------------------------------------|
B|--------------------------------------------|
G|--------------------------------------------|
D|--7/9-11-12\11-9-7-----7--9-9--7--5---------|
A|--5/7-9--10\9--7-5--5--5--7-7--5--3--5--0---|
D|--------------------5----------------5--0---|

e|--------------------------------------------|
B|--------------------------------------------|
G|--------------------------------------------|
D|--7/9-11-12\11-9-7-----7--9-9--7--5---------|
A|--5/7-9--10\9--7-5--5--5--7-7--5--3--5--0---|
D|--------------------5----------------5--0---|
Suggest correction
What's this?
You can suggest a correction to this tab. Community and Mods will review your correction and vote to approve or reject it.
comments
We did not receive enough feedback on this tab! Please rate:
print report bad tab
1 2 3 4 5
guest
You may want to rate the tab now too:
select rating
Please do not post tabs as comments. Select "correction" instead!