Oops, an error
Loading. Please wait.

6 00 Bass Tab

version 1
version 1

Whole song

1,607 views 3 this week
1 commentread comment
1 2 3 4 5
please rate
add to favorites
launch autoscroll
font size
0
reset
guitar tuner
Autoscroll
slow
fast
+/-
esc
set tempo
stop
Help us to improve Ultimate-Guitar.com Take our survey!
×
Author
Difficulty
intermediate
I hope you like this tab which I believe it's quite accurate. 
Please rate and comment. 
   
  Song:    6:00
  Band:    Dream Theater
  Album:   Awake
  Tuning:  G D A E B

 bpm: 101

   Intro:                                           Intro II:
    4/4                                              6/8
     w                  x9    q    e  e  h       x4   s e  e  s e  e  e  x4   s e  e  s e  e  e  x4
 ||----------------------||-----------------------||----------------------||----------------------|| 
 ||*--------------------*||*---------------------*||*-----------------5--*||*-----------------5--*|| 
 ||--r-------------------||-----------r--r--------||----7--5----7--5------||---/7--5----7--5------|| 
 ||*--------------------*||*-19\---7\------------*||*-0-------0----------*||*-0-------0----------*|| 
 ||----------------------||-----------------------||----------------------||----------------------||

  Intro III:
   4/4
     w                      s s s s s s s s s s s s s s s s   s s s s s s s s s s s s s s s s
 ||----------------------||---------------------------------|---------------------------------|
 ||*--------------------*||---6-6---6-6---6-6-----6---6---6-|---6-6---6-6---6-6---6-6---6---6-|
 ||--r-------------------||---------------------------------|---------------------------------|
 ||*--------------------*||-4-----4-----4-----4-4---4---4---|-4-----4-----4-----4-----4---4---|
 ||----------------------||---------------------------------|---------------------------------|


   Verse:                          
     e  s s s s s e  s s s s s s s   e  s s s s s s s s s s s s s s  
 ||--------------------------------|--------------------------------| 
 ||*-------------------------------|--------------------------------|
 ||-----7-5-7-5-7----7-5-7-5-7-5-7-|----7-5-7-5-------5-----5-----5-| 
 ||*-0------------0----------------|-0----------7-3-7---5-7---6-7---| 
 ||--------------------------------|--------------------------------| 


   e  s s s s s e  s s s s s s s   e  s s s s s s s s s s s s s s x3
 |-------------------------------|---------------------------------|| 
 |-------------------------------|--------------------------------*||
 |----7-5-7-5-7----7-5-7-5-7-5-7-|----7-5-7-5-------5-----5---5-7--|| 
 |-0------------0----------------|-0----------7-3-7---5-7---7-----*|| 
 |-------------------------------|---------------------------------|| 
  

   Bridge:                                                    Interlude:
     q    e  e  h       x4  s s s s s s s s s s s s s s s s     w
 ||----------------------||---------------------------------||-------------------------|| 
 ||*--------------------*||-5-4-5-4-5-4-0-2-0---------------||*-----------------------*|| 
 ||----------r--r--------||-------------------2-5-4-0-------||--r----------------------|| 
 ||*-3----5-------------*||---------------------------3-2-0-||*-----------------------*|| 
 ||----------------------||---------------------------------||-------------------------|| 


   e  e  e  s e  e  e  e  s   e  e  e  s s e  s e  s e
 |--------------------------|---------------------------|
 |--------------------------|---------------------------|
 |-7--r--5\-r----r--------r-|-7--r--5\-r---.----.-------|
 |------------3-----4--4----|------------3-3--3-3--3-3\-|
 |--------------------------|---------------------------|


  Repeat:  Verse (x2)
           Bridge
  

  Chorus:
    6/8      
     s e  e  s e  e  e  x4   s e  e  s e  e  e  x4    q    e  e  h       x4
 ||----------------------||----------------------||-----------------------||
 ||*-----------------5--*||*-----------------5--*||*---------------------*||
 ||----7--5----7--5------||---/7--5----7--5------||-----------r--r--------||
 ||*-0-------0----------*||*-0-------0----------*||*-19\---7\------------*||
 ||----------------------||----------------------||-----------------------||


   Keyboard Solo                  
     e  s s s s s e  s s s s s s s | e  s s s s s s s s s s s s s s  
 ||--------------------------------|--------------------------------| 
 ||*-------------------------------|--------------------------------|
 ||-----7-5-7-5-7----7-5-7-5-7-5-7-|----7-5-7-5-------5-----5-----5-| 
 ||*-0------------0----------------|-0----------7-3-7---5-7---6-7---| 
 ||--------------------------------|--------------------------------| 


   e  s s s s s e  s s s s s s s | e  s s s s s s s s s s s s s s  
 |-------------------------------|---------------------------------|| 
 |-------------------------------|--------------------------------*||
 |----7-5-7-5-7----7-5-7-5-7-5-7-|----7-5-7-5-------5-----5---5-7--|| 
 |-0------------0----------------|-0----------7-3-7---5-7---7-----*|| 
 |-------------------------------|---------------------------------|| 
     

   Solo                           
     e  s s s s s e  s s s s s s s   e  s s s s s s s s s s s s s s   
 ||--------------------------------|--------------------------------| 
 ||*-5-----------------------------|-8------------------------------| 
 ||-----7-5-7-5-7----7-5-7-5-7-5-7-|----7-5-7-5-------5-----5---5-7-| 
 ||*--------------0----------------|------------7-3-7---5-7---7-----| 
 ||--------------------------------|--------------------------------| 

  
   s s s s s s s e  s s s s s s s   s s s s s s s s s s s s s s s s   
 |--------------------------------|----------------------------------||
 |-7-5----------------------------|-4-5-----------------------------*|| 
 |-----7-5-7-5-7----7-5-7-5-7-5-7-|-----7-5-7-5-------5-----5---5-7--|| 
 |---------------0----------------|-------------7-3-7---5-7---7-----*|| 
 |--------------------------------|----------------------------------|| 


  Verse III:
   w                  q    h.             w                  q    h.
 |------------------|-------------------|------------------|-------------------|
 |------------------|------9------------|------------------|------7------------|
 |------------------|-------------------|------------------|-------------------|
 |-7----------------|-L-----------------|-5----------------|-L-----------------|
 |------------------|-------------------|------------------|-------------------|


   w                  q    h.             w                  q    h.
 |------------------|-------------------|------------------|-------------------|
 |------------------|------5------------|------------------|------7------------|
 |------------------|-------------------|------------------|-------------------|
 |-3----------------|-L-----------------|-5----------------|-L-----------------|
 |------------------|-------------------|------------------|-------------------|

  
  Bass & Keyboard Unison:
   s s s s s s s s s s s s s s s s   s s s s s s s s s s s s s s s s
 |---------------------------------|---------------------------------| 
 |-7-5-7-5-7-5---7-5-7-5-7-5---5-7-|-8-9-8-5-7-5---5-7-6-7-5-7-8-7-5-| 
 |-------------7-------------7-----|-------------7-------------------| 
 |---------------------------------|---------------------------------| 
 |---------------------------------|---------------------------------| 


   s s s s s s s s s s s s s s s s   s s s s s s s s s s s s s s s s
 |---------------------------------|-----7---------------------------|
 |-7-5-7-5-7-5---7-5-7-5-7-5---5-7-|-8-9---8-9-8-7-8-7-5-7-5-4-5-4-5-|
 |-------------7-------------7-----|---------------------------------|
 |---------------------------------|---------------------------------|
 |---------------------------------|---------------------------------|


   s s s s s s s s s s s s s s s s   s s s s s s s s s s s s s s s s
 |-------------------7---9-7-------|---------------7------------7-----|
 |-7-5-7-5-7-5---8-7---8-----8-7---|-8-9-8-7-9-8-7---9-8-7--------9-8-|
 |-------------7-----------------10|-----------------------10-7-------|
 |---------------------------------|----------------------------------|
 |---------------------------------|----------------------------------|


   s s s  s s s  s s s s  s s s s s s   s s s s s s s s s s s s s s s s
 |--------------------------9---7-----|-------7-9-7---7-6---6-----------|
 |-7-8-7----7------8-9--------------8-|-9-7-9-------9-----7---9-5-8-7-5-|
 |-------10---9-10-----7-10---7---7---|---------------------------------|
 |------------------------------------|---------------------------------|
 |------------------------------------|---------------------------------|


   Guitar Solo                                                  
     e  s s s s s e  s s s s s s s   e  s s s s s s s s s s s s s s  
 ||--------------------------------|--------------------------------| 
 ||*-------------------------------|--------------------------------|
 ||-----7-5-7-5-7----7-5-7-5-7-5-7-|----7-5-7-5-------5-----5-----5-| 
 ||*-0------------0----------------|-0----------7-3-7---5-7---6-7---| 
 ||--------------------------------|--------------------------------| 


   e  s s s s s e  s s s s s s s   e  s s s s s s s s s s s s s s  
 |-------------------------------|---------------------------------|| 
 |-------------------------------|--------------------------------*||
 |----7-5-7-5-7----7-5-7-5-7-5-7-|----7-5-7-5-------5-----5---5-7--|| 
 |-0------------0----------------|-0----------7-3-7---5-7---7-----*|| 
 |-------------------------------|---------------------------------|| 


  Repeat:  Verse (x2)
           Bridge
         
 Final Chorus:
   6/8      
     s e  e  s e  e  e  x4   s e  e  s e  e  e  x4    
 ||----------------------||----------------------||  
 ||*-----------------5--*||*-----------------5--*||   
 ||----7--5----7--5------||---/7--5----7--5------||   
 ||*-0-------0----------*||*-0-------0----------*||   
 ||----------------------||----------------------||  


     s s s s s s s s s s s s   s s s s s s s s s s s s 
 ||--------------------------|--------------------------||
 ||*-------------------------|-------------------------*||
 ||--5-5-5-5-5-5-------------|--------------------------||
 ||*-------------5-5-5-5-5-5-|-0-0-0-0-0-0-0-0-0-0-0-0-*||
 ||--------------------------|--------------------------||


   s s s s s s s s s s s s   s s s s s s s s s s s s 
 |-------------------------|-------------------------|
 |-------------------------|-------------------------|
 |-2-2-2-2-2-2-2-2-2-2-2-2-|-4-4-4-4-4-4-4-4-4-4-4-4-|
 |-------------------------|-------------------------|
 |-------------------------|-------------------------|


   s s s s s s s s s s s s   s s s s s s s s s s s s 
 |-------------------------|-------------------------|
 |-------------------------|-------------------------|
 |-------------------------|-------------------------|
 |-2-2-2-2-2-2-2-2-2-2-2-2-|-0-0-0-0-0-0-0-0-0-0-0-0-|
 |-------------------------|-------------------------|

 
 Outro:
  4/4
      q    e  e  h           e  s s s s s s s s e  q      e  s s s s s s s s s s s  s  s  s
 ||-----------------------||--------------------9--9----|--------------7-7-7-9-9-9-11-11-11-|
 ||*---------------------*||----9-7-9-7---9-------------|----9-7-9-7------------------------|
 ||-----------r--r--------||------------9---9-----------|------------9----------------------|
 ||*-19\---7\------------*||-7----------------7---------|-7---------------------------------|
 ||-----------------------||----------------------------|-----------------------------------|


     s s s s s s s s s s s s s s s s   s s s s s s s s s s s s s s s s
 ||----------------------------------|----------------------------------||
 ||*---6-6---6-6---6-6-----6---6-6-6-|---6-6---6-6---6-----6-6---6-----*||
 ||----------------------------------|----------------------------------||
 ||*-4-----4-----4-----4-4---4-------|-4-----4-----4---4-4-----4---4-4-*||
 ||----------------------------------|----------------------------------||



 TAB LEGEND:
 
 bpm: tempo    4/4: Time signature   ||* & *||: Repeat Open & Close   |1.2.: endings 

 / : slide up      \ : slide down      h : hammer-on      p : pull-off
 L : tie note      ~ : vibrato         r : rest           x : dead note
 . : staccato      T : tapping         S : slap           P : pop     
 + : harmonic      ah: artificial harmonic      
 
 w: whole note     h: half note        q: quarter note    s: sixteen note    
 t: 32nd note      --3--: triplet      w. h. q. etc: dotted note
Suggest correction
Give kudos to tab author, rate the tab!
1 2 3 4 5
comments
print report bad tab
1 comment total.
0 reply
Schwenke 1,243 wrote on September 3 2016, 12:24 am

Great tab man! Just a note on the main riff: I checked out some live footage to learn how Myung plays it, and he does it in one position rather than shifting down to the 3rd fret G, like this:

e s s s s s e s s s s s s s | e s s s s s s s s s s s s s s
||--------------------------------|--------------------------------|
||*-------------------------------|--------------------------------|
||-----7-5-7-5-7----7-5-7-5-7-5-7-|----7-5-7-5-------5-----5-----5-|
||*-0------------0----------------|-0----------7---7---5-7---6-7---|
||--------------------------------|--------------8-----------------|

guest
You may want to rate the tab now too:
select rating
Please do not post tabs as comments. Select "correction" instead!