Oops, an error
Loading. Please wait.

A Change Of Seasons Tab

version 1
version 1

Whole song

106,184 views 87 this week
20 commentsread comments
1 2 3 4 5
excellent!
x 34
add to favorites
launch autoscroll
font size
0
reset
how to read this tab
guitar tuner
Autoscroll
slow
fast
+/-
esc
set tempo
stop
Help us to improve Ultimate-Guitar.com Take our survey!
×
Credits

         Editor-n-Chief:  The Mad Tabber

         Initial Transcribers:
                   The Crimson Sunset:  Brian Cox, Chris Ptacek
                   Innocence:  Eric Clark (also known as Erik Wolfe),
Brandon Vaughn
                   Carpe Diem:  Will Kriski, Andreas Richter, Tim Williams
                   The Darkest of Winters:  Andreas Richter, Will Kriski,
Steve Borzilleri
                   (better known as Bafu Vai), Brandon Vaughn
                   Another World:  Will Kriski, Itchak Schwarzbard
                   The Inevitable Summer:  Chris Ptacek, Brandon Vaughn
                   The Crimson Sunset:  Chris Ptacek, Brandon Vaughn

         Checkers:  Brian Wherry, Vincent LuPone, Kevin Hammer, Ernesto
Schnack, Pedro Filipe,
         Chad Cook, Neil Evans, Chris Fyhr, Esa Virtanen, Jeff Glover,
Greg Habetler, Mark Peters,
         Marc Contrady, Edwin Voras, Geir Rastad, Cassiano Barbosa

         Special Thanks to:
                   Kevin Hammer -- for the web space to distribute this
                   Yuji Miyazaki -- for the "inspiration"
                   John Petrucci -- for his approval and blessing


Questionable Passages

     All questionable passages are denoted with *** in the transcription.

     The Crimson Sunrise:
               02:42 -- I think this is right; hard to hear.
               02:48 -- I think these are single notes, but they could be
chords.

     The Darkest of Winters
               10:33 -- It sounds like (esp. when slowed down) he shifts
(slides) up.
               12:06 -- Does he play this chord as 224 or 244 (I think he
switches)
               12:18 -- You 7-stringers...does this chord sound right?

     Another World
               13:11 -- Does this chord sound right?
               16:31 -- 16:57  I believe this is right, but the guitar is
hard to discern.

     The Inevitable Summer
               18:50 -- Sounds more like a chord (22) than a single note.
               19:55 -- 22:01  Single notes or chords 7-stringers?
               20:11 -- Sounds right.

     The Crimson Sunset
               22:16 -- This sounds and looks like a Petrucci chord, but
hard to tell.


     Additional points to check:
               7-string parts, various chords, and any other part you have
time to look over.

Transcribed by:  The YtseJam ACOS Project Team
#------------------------------PLEASE NOTE------------------------------#
#This file is the author's own work and represents their interpretation #
#of the song. You may only use this file for private study, scholarship,#
#or research.                                                           #
#-----------------------------------------------------------------------#


I. The Crimson Sunrise


E---|----------------------------------------------------|--------------|
B---|----------------------------------------------------|--------------|
G---|--4:------------------------------------------------|--------------|
D---|--4:--------2--5--------2--4----------2-------------|--------0-----|
A---|---------2-----------2-----------2h5--------2--5/7--|-----7--------|
E---|----------------------------------------------------|--5-----------|
B---|------0-----------0-----------0----------0----------|--------------|

                                        (1/2)
E-------------------------------------------|---------------------------|
B-------------------------------------------|---------------------------|
G-------------------------------------------|---------------------------|
D------------0-----------2--0---------------|--------2--5--------2------|
A---7-----5-----5-----2--------------0------|-----2-----------2---------|
E------3-----------0--------------2---------|---------------------------|
B------------------------------3--------3^--|--0-----------0------------|

E----------------------------|------------------------------------------|
B----------------------------|------------------------------------------|
G----------------------------|------------------------------------------|
D---4----------2-------------|--------0-----------0-----------2---------|
A---------2h5--------2--5/7--|-----7-----7-----5-----5-----2-----2------|
E----------------------------|--5-----------3-----------0---------------|
B------0----------0----------|------------------------------------------|

E---------------|------------------------------------------------|------|
B---------------|------------------------------------------------|------|
G---------------|------------------------------------------------|------|
D---------------|--------2--5--------2--4----------2-------------|------|
A---------3-----|-----2-----------2-----------2h5--------2--5/7--|------|
E------3-----3--|------------------------------------------------|------|
B---1-----------|--0-----------0-----------0----------0----------|------|

                                                 (1/2)
E----------------------------------------------------|------------------|
B----------------------------------------------------|------------------|
G----------------------------------------------------|------------------|
D---------0-----------0-----------2--0---------------|--------2--5------|
A------7-----7-----5-----5-----2--------------0------|-----2------------|
E---5-----------3-----------0--------------2---------|------------------|
B---------------------------------------3--------3^--|--0---------------|

E-------------------------------------|---------------------------------|
B-------------------------------------|---------------------------------|
G-------------------------------------|---------------------------------|
D---------2--4----------2-------------|--------0-----------0------------|
A------2-----------2h5--------2--5/7--|-----7-----7-----5-----5---------|
E-------------------------------------|--5-----------3-----------0------|
B---0-----------0----------0----------|---------------------------------|

E------------------------|--------------0-----------------------0-------|
B------------------------|-----------0--------0--------------3----------|
G------------------------|--------2-----------------------2-------------|
D------2-----------------|-----4-----------------------0----------------|
A---2-----3--------3-----|----------------------------------------------|
E---------------3-----3--|--2--------------2-----2--3--------------3----|
B------------1-----------|----------------------------------------------|

E---------|--------------------------------------------------|----------|
B---3-----|--------------------2-----------------------------|----------|
G---------|--------4-----------------------------------2-----|----------|
D---------|-----2-----2-----4-----4--------4--------0-----0--|-----4----|
A---------|--0-----------2--------------2-----2--------------|----------|
E------3--|--------------------------0-----------3-----------|--2-------|
B---------|--------------------------------------------------|----------|

E---------0-----------------------0-----------|-------------------------|
B------0--------0--------------3--------3-----|--------------------2----|
G---2-----------------------2-----------------|--------4----------------|
D------------------------0--------------------|-----2-----2-----4-------|
A---------------------------------------------|--0-----------2----------|
E------------2-----2--3--------------3-----3--|-------------------------|
B---------------------------------------------|-------------------------|

E--------------------------------|--------------------------------------|
B--------------------------------|--------------------------------------|
G--------------------------2-----|--7:--------------------0-------------|
D---4--------4----------0-----0--|--8:--------------4-------------------|
A---------2-----(2)--------------|---------2--5-----------------5/7-----|
E------0-------------3-----------|--------------------------------------|
B--------------------------------|------0--------0-----0-----0----------|

E--------------|-----------------------------------------|--------------|
B--------------|-----------------------------------------|--------------|
G--------------|--------------------0--------------------|--------------|
D---7-----5\4--|--------------4-----------------------2--|--------------|
A--------------|-----2--5--------------------0--5-----2--|-----2--5-----|
E--------------|-----------------------------------------|--------------|
B------0-------|--0--------0-----0-----0--3--------3-----|--0-----------|

E----------------------------------|------------------------------------|
B----------------------------------|------------------------------------|
G------------0---------------------|--------------------0---------------|
D------4----------------7-----5\4--|--2-----------4---------------------|
A------------------5/7-------------|-----2--5--------------------0------|
E----------------------------------|------------------------------------|
B---0-----0-----0----------0-------|-----------0-----0-----0--3---------|

E------------||--------------------------------------------------|------|
B------------||--------------------------------------------------|------|
G------------||*--7:---------------------------------------------|------|
D---------2--||*--4:---------------------------------------------|------|
A---5-----2--||----------9--10-----7--9-----5--7-----4--5-----2--|------|
E------------||--------------------------------------------------|------|
B------------||-------0---------0--------0--------0--------0-----|------|

E-----------------------------------------------||--||------------------|
B-----------------------------------------------||--||------------------|
G----------------------------------------------*||--||*--4:-------------|
D----------------------------------------3-----*||--||*--4:-------------|
A------9--10-----7--9-----5--7-----4--5---------||--||------------------|
E-------------------------------------------5---||--||----------9-------|
B---0---------0--------0--------0---------------||--||-------0--7-------|

E----------------------|-----------------------|------------------------|
B----------------------|-----------------------|------------------------|
G----------------------|-----------------------|------------------------|
D----------------------|-----------------------|------------------------|
A----------------------|-----------------------|------------------------|
E---10-----7--9-----5--|--7-----4--5-----5-----|-----9--10-----7--9-----|
B---8---0--5--7--0--3--|--5--0--2--3--0--3-----|--0--7--8---0--5--7-----|

E---------|----------------------||--||---------------------------------|
B---------|----------------------||--||---------------------------------|
G---------|--3:-----------------*||--||*--7:----------------------------|
D---------|--4:-----------------*||--||*--4:----------------------------|
A---------|------------------3---||--||---------------------------------|
E------5--|------7-----4--5--1---||--||----------2--3-----0--2----------|
B---0--3--|------5--0--2--3------||--||-------0--------0--------0--3----|

E---------------------|-------------------------------------------------|
B---------------------|-------------------------------------------------|
G---------------------|-------------------------------------------------|
D---------------------|-------------------------------------------------|
A---------------------|-------------------------------------------------|
E---------------------|-----2--3-----0--2--------------------1~~~-------|
B---5--0--2--3--0--3--|--0--------0--------0--3--5--0--2--3-------------|

E----||-----------------|--------------------||---------0---------|-----|
B----||-----------------|--------------------||------7-----10-----|-----|
G---*||-----------------|--------------------||*---------------7--|-----|
D---*||-----------------|--------------------||*--9---------------|-----|
A----||-----------------|--------------------||-------------------|-----|
E----||--2--2-----------|--x--x--2--2--------||-------------------|-----|
B----||--0--0-----------|--x--x--0--0--------||-------------------|-----|

E---------0---------||-----------0--|-----0-----0--|-----------0--|-----|
B------7------------||-----7--------|--------0-----|--------0-----|-----|
G------------7-----*||--------------|--------------|-----4--------|-----|
D---9-----------7--*||--9-----9-----|--7-----------|--2-----------|-----|
A-------------------||--------------|--------------|--------------|-----|
E-------------------||--------------|--------------|--------------|-----|
B-------------------||--------------|--------------|--------------|-----|

E------------5--|--------------------------------------------------|----|
B---------8-----|--------------------------------------------------|----|
G------7--------|--------------------------------------------------|----|
D---5-----------|--------------------------------------------------|----|
A---------------|-----------------------------------------5--------|----|
E---------------|-----7--x--x--5--7--x--x--5~~~--7--x--x-----7--5--|----|
B---------------|--0-----------------------------------------------|----|

                                     ***
E-------------------------------------------------|---------------------|
B-------------------------------------------------|---------------------|
G-------------------------------------------------|---------------------|
D-------------------------------------------------|---------------------|
A------------------------------------5--(6)--7p5--|---------------------|
E------7--x--x--5--7--x--x--5~~~--7---------------|-----7--x--x--5------|
B---0---------------------------------------------|--0------------------|

E--------------------------------------|--------------------------------|
B--------------------------------------|--------------------------------|
G--------------------------------------|--------------------------------|
D--------------------------------------|--------------------------------|
A---------------------------5h7--5-----|--------------------------------|
E---7--x--x--5~~~--7--x--x----------7--|-----7--x--x--5--7--x--x--5-----|
B--------------------------------------|--0-----------------------------|

               ***
E-----------------------|---------------------------------|-------------|
B-----------------------|---------------------------------|-------------|
G-----------------------|--4:-----------------------------|--9:---------|
D-----------------------|--4:-----------------------------|--8:---------|
A-----------------------|---------------------------------|-------------|
E---~~~--7--------------|------------2-----4--2--2-----5--|-------------|
B-----------0--3--5--7--|------2--2-----2-----------2-----|------2------|

E---------------------------|---------------------------------|---------|
B---------------------------|---------------------------------|---------|
G---------------------------|--4:-----------------------------|--9:-----|
D---------------------------|--4:-----------------------------|--8:-----|
A------------------4--7--5--|---------------------------------|---------|
E---4-----4--5--7-----------|------------2-----4--2--2-----5--|---------|
B------5--------------------|------2--2-----2-----------2-----|---------|

E------------------------------|-----------------------------|----------|
B------------------------------|-----------------------------|----------|
G------------------------------|-----------------------------|----------|
D------6-----------------------|--------4-----6--4--4-----7--|-----6----|
A---4-----------------4--7--5--|--4--4-----4-----------4-----|--4-------|
E------------4--5--7-----------|-----------------------------|----------|
B---------5--------------------|-----------------------------|----------|

E------------------------|----------------------------------|-----------|
B------------------------|----------------------------------|-----------|
G------------------------|--4:------------------------------|--9:-------|
D------------------------|--4:--------7-----9--7--7-----10--|--8:-------|
A---7-----------4--7--5--|------7--7-----7-----------7------|------7----|
E------4--5--7-----------|----------------------------------|-----------|
B------------------------|----------------------------------|-----------|

E------------------------------|---------------------------------|------|
B------------------------------|---------------------------------|------|
G------------------------------|--4:-----------------------------|------|
D---9--------------------------|--4:--------7-----9--7--7--------|------|
A------10------------7--10--8--|------7--7-----7-----------7-----|------|
E----------7--8--10------------|------------------------------8--|------|
B------------------------------|---------------------------------|------|

E----------------------------------|------------------------------------|
B----------------------------------|------------------------------------|
G---9:-----------------------------|--4:--------------------------------|
D---8:-----9-----------------------|--4:--------------------------------|
A-------7--------------------------|------------2-----2--0--0-----3-----|
E-------0-----------------0--3--1--|------0--0-----0-----------0--------|
B-------------8--0--1--3-----------|------------------------------------|

E---|---------------------------------|---------------------------------|
B---|---------------------------------|---------------------------------|
G---|--9:-----------------------------|--4:-----------------------------|
D---|--8:-----------------------------|--4:-----------------------------|
A---|---------2-----2--3--5-----------|---------------------------------|
E---|------0-----3-----------0--3--1--|------------2-----4--2--2--------|
B---|---------------------------------|------2--2-----2-----------2-----|

E------|-----------------------------|-----------------------------|----|
B------|-----------------------------|-----------------------------|----|
G------|-----------------------------|-----------------------------|----|
D------|-----------------------------|-----------------------------|----|
A------|--------------------4--7--5--|-----------------------------|----|
E---5--|-----4-----4--5--7-----------|--------2-----4--2--2-----5--|----|
B------|--2-----5--------------------|--2--2-----2-----------2-----|----|

E----------------------------------|------------------------------------|
B----------------------------------|------------------------------------|
G---9:-----------------------------|--4:--------------------------------|
D---8:-----6-----------------------|--4:--------4-----6--4--4-----7-----|
A-------4-----------------4--7--5--|------4--4-----4-----------4--------|
E----------------4--5--7-----------|------------------------------------|
B-------------5--------------------|------------------------------------|

E---|---------------------------------|---------------------------------|
B---|---------------------------------|---------------------------------|
G---|--9:-----------------------------|--4:-----------------------------|
D---|--8:-----6-----------------------|--4:--------7-----9--7--7--------|
A---|------4-----7-----------4--7--5--|------7--7-----7-----------7-----|
E---|---------------4--5--7-----------|---------------------------------|
B---|---------------------------------|---------------------------------|

E-------|------------------------------------|--------------------------|
B-------|------------------------------------|--------------------------|
G-------|--9:--------------------------------|--4:----------------------|
D---10--|--8:-----9--------------------------|--4:--------7-----9--7----|
A-------|------7-----10------------7--10--8--|------7--7-----7----------|
E-------|----------------7--8--10------------|--------------------------|
B-------|------------------------------------|--------------------------|

E------------|--------------------------------|-------------------------|
B------------|--------------------------------|-------------------------|
G------------|--9:----------------------------|--4:---------------------|
D---7--------|--8:-----9----------------------|--4:---------------------|
A------7-----|------7-------------------------|------------0-----2------|
E---------8--|------------------------0/3--1--|------0--0-----0---------|
B------------|------------8--0--1--3----------|-------------------------|

E---------------|---------------------------------|---------------|-----|
B---------------|---------------------------------|---------------|-----|
G---------------|--9:-----------------------------|--4:-----------|-----|
D---------------|--8:-----------------------------|--4:-----------|-----|
A---0--0-----3--|---------2-----2--3--5-----------|---------------|-----|
E---------0-----|------0-----3-----------0--3--1--|------4-----5--|-----|
B---------------|---------------------------------|------2-----3--|-----|

E----------------------------|---------------|--------------------------|
B----------------------------|---------------|--------------------------|
G---9:-----------------------|--4:-----------|--9:----------------------|
D---8:-----------------------|--4:--------2--|--8:--4-------------------|
A-------------------4--7--5--|------------0--|------2--------------4----|
E-------7--4--5--7-----------|------4-----0--|------2-----4--5--7-------|
B-------5--------------------|------2--------|--------------------------|

E---------|---------------|------------------------------|--------------|
B---------|---------------|------------------------------|--------------|
G---------|--4:-----------|--5:--------------------------|--4:----------|
D---------|--4:-----------|--4:--------------------------|--4:--4--7----|
A---7--5--|---------------|------------------4--7--6--5--|--------------|
E---------|------4-----5--|------7--4--5--7--------------|--------------|
B---------|------2-----3--|------5-----------------------|--------------|

E---------------------|---------------8--11--10~~~--|------------|------|
B---------------------|--7--10--9~~~----------------|------------|------|
G---------5--8--7~~~--|-----------------------------|--2:--------|------|
D---6~~~--------------|-----------------------------|--4:--------|------|
A---------------------|-----------------------------|------------|------|
E---------------------|-----------------------------|------------|------|
B---------------------|-----------------------------|------------|------|

E--------11--9--8---------------------------------------------|---------|
B------------------10--9--7-----------------------------------|---------|
G---17:----------------------8--6--5--------------------------|--4:-----|
D---16:-------------------------------7-----4-----------------|--4:-----|
A----------------------------------------6-----6--4--3--------|---------|
E-------------------------------------------------------5--4--|---------|
B-------------------------------------------------------------|---------|

E---------------------------|-------------------------------------------|
B---------------------------|-------------------------------------------|
G---------------------------|-------------------------------------------|
D---------------------------|-------------------------------------------|
A---4-----4--4--4-----4--4--|-------------------------------------------|
E---2-----2--2--2-----2--2--|-------------------------------------------|
B---------------------------|-------------------------------------------|


II. Innocence

E---|--------------------------|--------------------------|-------------|
B---|--------------------------|--------------------------|-------------|
G---|--4:----------------------|--------------------------|-------------|
D---|--4:--------2-------------|--------------------------|--------2----|
A---|------4--5--2--/---8---\--|--4--5--------5--------5--|--4--5--2----|
E---|------2--2--0---/--7--\---|--2--2--4--4-----3--3-----|--2--2--0----|
B---|--------------------------|--------------------------|-------------|

E----------------|--------------------|---------------------------------|
B----------------|--------------------|---------------------------------|
G----------------|--------------------|---------------------------------|
D----------------|--------------------|--9--11--9-----12--11--9---------|
A-----/---8---\--|--4--5--------5--5--|------------9-------------9------|
E----/----7--\---|--2--2--4--4-----3--|---------------------------------|
B----------------|--------------------|---------------------------------|

E-----------------------------|-----------------------------------------|
B-----------------------------|-----------------------------------------|
G----------9-----------10-----|-----------------------------------------|
D-------9-----9-----9---------|--9--11--9-----12--11--9---------12------|
A---11-----------8---------9--|------------9-------------9--11----------|
E-----------------------------|-----------------------------------------|
B-----------------------------|-----------------------------------------|

E-----------|-----------------------------------------------------------|
B-----------|-----------------------------------------------------------|
G-----------|------------------------------------9-----------10---------|
D-------12--|--9--11--9-----12--11--9---------9-----9-----9-------------|
A---10------|------------9-------------9--11-----------8---------9------|
E-----------|-----------------------------------------------------------|
B-----------|-----------------------------------------------------------|

E---|------------------------------------------------------|------------|
B---|------------------------------------------------------|------------|
G---|--------------------------------------------------11--|------------|
D---|--9--11--9-----12--11--9--------------9--7--9/11------|--9~~~------|
A---|------------9-------------9--7h9--10------------------|------------|
E---|------------------------------------------------------|------------|
B---|------------------------------------------------------|------------|

E----------|-------------------------|----------------------------|-----|
B----------|-------------------------|----------------------------|-----|
G---9--11--|--(11)p9h11p9~~~------9--|----------------------------|-----|
D----------|------------------12-----|--12--11--9h11p9~~~------9--|-----|
A----------|-------------------------|---------------------12-----|-----|
E----------|-------------------------|----------------------------|-----|
B----------|-------------------------|----------------------------|-----|

                                                  (1)
E---------------------|------------------------------|------------------|
B---------------------|---------------------17--17^--|---~~~-----17-----|
G---------------------|-------------16---------------|------------------|
D---------------------|--9h(11)/14------14-----------|------------------|
A---12p10--(12)\9~~~--|------------------------------|------------------|
E---------------------|------------------------------|------------------|
B---------------------|------------------------------|------------------|

    (*1)(r)                                                        (1/2)
E-------------------|------------------------------------|--------------|
B---^--(17)p15--17--|--15--14h15p14----------------------|--------------|
G-------------------|----------------16~~~---\---11--12--|--(12)p11^----|
D-------------------|------------------------------------|--------------|
A-------------------|------------------------------------|--------------|
E-------------------|------------------------------------|--------------|
B-------------------|------------------------------------|--------------|

     (r)
E--------------|------------------0-----|---------------------0---------|
B--------------|---------------0-----0--|---------------3--------3------|
G---(11)p9-----|--3:--------2-----------|--9:--------2------------------|
D-----------10\|--4:-----4--------------|--8:-----0---------------------|
A--------------|------------------------|-------------------------------|
E--------------|------2-----------------|------3-----------3------------|
B--------------|------------------------|-------------------------------|

E---------|------------------------|------------------------------------|
B---------|---------------------2--|------------------------------------|
G---2-----|--3:-----4--------------|--9:-----------------------2--------|
D---------|--4:--2-----2-----4-----|--8:--4--------4--------0-----0-----|
A------0--|---------------2--------|------------2-----2-----------------|
E---------|------------------------|---------0-----------3--------------|
B---------|------------------------|------------------------------------|

E---|------------------0-----|---------------------0-----------|--------|
B---|---------------0--------|---------------3--------3--------|--------|
G---|--3:--------2-----------|--9:--------2--------------2-----|--3:----|
D---|--4:-----4--------------|--8:-----0-----------------------|--4:----|
A---|------------------------|------------------------------0--|--------|
E---|------2--------------2--|------3-----------3--------------|--------|
B---|------------------------|---------------------------------|--------|

E---------------------|---------------------------------|---------------|
B------------------2--|---------------------------------|---------------|
G------4--------------|--9:-----------------------2-----|--3:-----------|
D---2-----2-----4-----|--8:--4--------4--------0-----0--|--4:-----------|
A------------2--------|------------2-----2--------------|---------4-----|
E---------------------|---------0-----------3-----------|------2--------|
B---------------------|---------------------------------|---------------|

E---------0-----|------------------3--|------------------0-----|--------|
B------0-----0--|---------------3-----|---------------------0--|--------|
G---3-----------|--9:--------2--------|--3:-----2-----4--------|--9:----|
D---------------|--8:-----0-----------|--4:--------2-----------|--8:----|
A---------------|---------------------|------0-----------------|--------|
E---------------|------3--------------|------------------------|--------|
B---------------|---------------------|------------------------|--------|

E---------------2--|------------------0-----|------------------5--|-----|
B------------2-----|---------------0-----0--|---------------3-----|-----|
G---------4--------|--3:--------3-----------|--9:--------2--------|-----|
D------4-----------|--4:-----4--------------|--8:-----0-----------|-----|
A---2--------------|------------------------|---------------------|-----|
E------------------|------2-----------------|------3--------------|-----|
B------------------|------------------------|---------------------|-----|

E--------------------7------|---------------------------|---------------|
B----------------10-----10--|---------------------------|---------------|
G---3:--------9-------------|--4:-----------------------|--------2------|
D---4:-----7----------------|--4:--9--------------------|--------2------|
A-------0-------------------|------7--------------------|--2-----0------|
E---------------------------|------0-----1--0--------5--|--2------------|
B---------------------------|------------------3--0--3--|--0------------|

E------|--------|-----------|---------------|------------------|--------|
B------|--------|-----------|---------------|------------------|--------|
G---4--|--------|--2--------|--9:-----------|--4:--------2--4--|--------|
D---4--|--------|--2-----5--|--8:--2--------|--4:--------2--4--|--------|
A---2--|--------|--0-----5--|------2--5--3--|------2-----0--2--|--------|
E------|--------|--------3--|------0--5--3--|------2-----------|--------|
B------|--------|-----------|---------3--1--|------0-----------|--------|

E------|--------|---------------|-----------------|---------------------|
B------|--------|---------------|-----------------|---------------------|
G------|--2-----|--9:-----------|--4:-------------|---------------------|
D------|--2--5--|--8:--2-----2--|--4:--------2--3\|---------------------|
A------|--0--5--|------2--5--2--|------4--5--2----|--4--5---------------|
E------|-----3--|------0--5--0--|------2--2--0----|--2--2--(4)--4-------|
B------|--------|---------3-----|-----------------|---------------------|

E------------------|-------------|-----------------------|--------------|
B------------------|-------------|-----------------------|--------------|
G------------------|-------------|-----------------------|--3:----------|
D------------------|--------2--3\|-----------------------|--4:-----4----|
A------------------|--4--5--2----|--4--5--------5-----5--|--------------|
E---4--3--3-----3--|--2--2--0----|--2--2--4--4--------3--|------2-------|
B------------------|-------------|-----------------------|--------------|

E---------0--|---------|---------------0--|---------|-------------------|
B------0-----|---------|---------------0--|---------|-------------------|
G---2--------|--9:-----|--3:-----------4--|--9:-----|--3:--------6------|
D------------|--8:-----|--4:--------4-----|--8:-----|--4:-----7---------|
A------------|---------|---------2--------|---------|------7------------|
E------------|---------|------0-----------|---------|-------------------|
B------------|---------|------------------|---------|-------------------|

E---0--|---------|---------------0--|---------|-----------------9-------|
B---0--|---------|---------------0--|---------|--------------------9----|
G------|--9:-----|--3:--------8-----|--9:-----|--4:---------11----------|
D------|--8:-----|--4:-----9--------|--8:-----|--4:-----11--------------|
A------|---------|------9-----------|---------|------9------------------|
E------|---------|------------------|---------|-------------------------|
B------|---------|------------------|---------|-------------------------|

E-------|----------|---------------7--------|---------|-----------------|
B-------|----------|------------------7-----|---------|------------2----|
G---11--|--7:------|--4:--------9--------9--|--7:-----|--4:-----2-------|
D-------|--8:--11--|--4:-----9--------------|--8:-----|--4:--2----------|
A-------|----------|------7-----------------|---------|-----------------|
E-------|----------|------------------------|---------|-----------------|
B-------|----------|------------------------|---------|-----------------|

E---0--------|---------|---------------0--------|------0--------0-------|
B------0--2--|---------|------------4-----4-----|------------4----------|
G------------|--7:--2--|--4:-----4-----------4--|--7:-----4--------4----|
D------------|--8:-----|--4:--4-----------------|--8:-------------------|
A------------|---------|------------------------|-----------------------|
E------------|---------|------------------------|-----------------------|
B------------|---------|------------------------|-----------------------|

E------|------------------------------|---------------------------------|
B---4--|------------------------------|---------------------------------|
G------|--3:--------------------------|--9:-----------------------------|
D------|--4:-----------4-----------2--|--8:-----------4-----------2-----|
A------|------4--------2-----------0--|------4--------2-----------0-----|
E------|------2--2--2-----2--2--2-----|------2--2--2-----2--2--2--------|
B------|------------------------------|---------------------------------|

E------------|------------------------------|---------------------------|
B------------|------------------------------|---------------------------|
G------------|--3:--------------------------|--9:-----------------------|
D------------|--4:-----------4-----------2--|--8:-----------4-----------|
A---2-----5--|------4--------2-----------0--|------4--------2-----------|
E---0--2--3--|------2--2--2-----2--2--2-----|------2--2--2-----2--2-----|
B------------|------------------------------|---------------------------|

E------------------|---------------------------|------------------------|
B------------------|---------------------------|------------------------|
G------------------|--3:-----------4--------2--|--9:-----------4--------|
D------2-----------|--4:-----4--4-----4--------|--8:-----4--4-----4-----|
A------0--2--------|---------------------4-----|------4-----------------|
E---2-----0--2--2--|------2--------------2-----|------2-----------------|
B------------------|---------------------------|------------------------|

E------------------|---------------------------|------------------------|
B------------------|---------------------------|------------------5-----|
G------2-----------|--3:-----------4--------2--|--9:-----------4--------|
D------------------|--4:--------------4--------|--8:--2-----------------|
A---4-----2--4--5--|------4--------------4-----|------------------------|
E---2--------2--3--|------2--2--2--------2-----|------------------------|
B------------------|---------------------------|------------------------|

E---------------------------------------|------------------0-----|------|
B---2-----------------------------------|---------------0-----0--|------|
G------2-----4--2-----------------------|--3:--------3-----------|------|
D---------4--------2-----4--2-----------|--4:--------------------|------|
A---------------------4--------2--------|---------4--------------|------|
E---------------------------------5--4--|------2-----------------|------|
B---------------------------------------|------------------------|------|

E-------------------3--|------------------0-----|------------------2----|
B----------------3-----|---------------------0--|---------------2-------|
G---9:--------2--------|--3:-----2-----4--------|--9:--------4----------|
D---8:-----0-----------|--4:--------2-----------|--8:-----4-------------|
A----------------------|------0-----------------|------2----------------|
E-------3--------------|------------------------|-----------------------|
B----------------------|------------------------|-----------------------|

E---|------------------0-----|------------------5--|--------------------|
B---|---------------0-----0--|---------------3-----|--------------------|
G---|--3:--------3-----------|--9:--------2--------|--3:--------9-------|
D---|--4:-----4--------------|--8:-----0-----------|--4:-----7----------|
A---|------------------------|---------------------|------0-------------|
E---|------2-----------------|------3--------------|--------------------|
B---|------------------------|---------------------|--------------------|

E-------7------|---------------------------|--------------|--------|----|
B---10-----10--|---------------------------|--------------|--------|----|
G--------------|--4:-----------------------|--------2--4--|--------|----|
D--------------|--4:--9--------------------|--------2--4--|--------|----|
A--------------|------7--------------------|--2-----0--2--|--------|----|
E--------------|------0-----1--0--------5--|--2-----------|--------|----|
B--------------|------------------3--0--3--|--0-----------|--------|----|

E------------|---------------|------------------|--------|--------|-----|
B------------|---------------|------------------|--------|--------|-----|
G---2--------|--9:-----------|--4:--------2--4--|--------|--2-----|-----|
D---2-----5--|--8:--2--------|--4:--------2--4--|--------|--2--5--|-----|
A---0-----5--|------2--5--3--|------2-----0--2--|--------|--0--5--|-----|
E---------3--|------0--5--3--|------2-----------|--------|-----3--|-----|
B------------|---------3--1--|------0-----------|--------|--------|-----|

E----------------|---------|-----|--------------------------------------|
B----------------|------5--|--5--|--------------------------------------|
G---9:-----------|--4:--4--|--4--|--------------------------------------|
D---8:--2-----7--|--4:--2--|--2--|--------------------------------------|
A-------2--5--7--|------2--|--2--|--------------------------------------|
E-------0--5--5--|------0--|--0--|--------------------------------------|
B----------3-----|---------|-----|--------------------------------------|


III. Carpe Diem

E---||----------------------------------------------------||------------|
B---||----------------------------------------------------||------------|
G---||*--5:----------------------------------------------*||------------|
D---||*--4:----------------------------------------------*||------------|
A---||---------------4--3--------4--5---------------------||--4---------|
E---||-------2p0--2--------2--------------3-----2--3--5---||------------|
B---||----------------------------------------------------||------------|

E---------------------------------|-------------------------------------|
B---------------------------------|-------------------------------------|
G---------------------------------|-----------------------4~~~----------|
D------6--5-----6--7-----4--------|-----------6--7-----7-----------7----|
A---4--------4--------5-----7--5--|--4-----4--------4-----------5-------|
E---------------------------------|-------------------------------------|
B---------------------------------|-------------------------------------|

E---------|-----------------------------------------|-------------------|
B---------|-----------------------------------------|-------------------|
G---------|--------------4-----4--6~~~-----4--------|--4:--------4------|
D---6--4--|-----------7-----------------------7--6--|--4:---------------|
A---------|--4-----4--------4-----------5-----------|------4--4---------|
E---------|-----------------------------------------|-------------------|
B---------|-----------------------------------------|-------------------|

E------------------|---------------|---------------------|--------------|
B------------------|---------------|---------------------|--------------|
G---6-----6--7~~~--|--3:--6--4--2--|--2:--6-----4-----2--|--4:----------|
D------------------|--4:--4--2--0--|--4:--4-----2-----0--|--4:----------|
A------4-----------|------4--2--0--|------4-----2-----0--|------4--4----|
E------------------|---------------|---------------------|--------------|
B------------------|---------------|---------------------|--------------|

                                   ***
E-------------------------------|---------------------------------------|
B------5--5--------------7--/---|-----------10--10--------------9--9----|
G------6--6--------------6--6/--|-----------9---9---------------9--9----|
D------6--6--------------6--6---|-----------11--11--------------9--9----|
A---4-----------4--4--4---------|---------------------------------------|
E-------------------------------|--9--9--9-------------9--9--9----------|
B-------------------------------|---------------------------------------|

E---|---------------------------------------|---------------------------|
B---|---------------------------------------|-----------10--10----------|
G---|-----------9---9---------------11--11--|-----------9---9-----------|
D---|-----------11--11--------------11--11--|-----------11--11----------|
A---|-----------11--11--------------11--11--|---------------------------|
E---|--9--9--9-------------9--9--9----------|--9--9--9-------------0----|
B---|---------------------------------------|---------------------------|

E---------------|------------------|--------------------------|---------|
B---------8--8--|------------------|--------------------------|---------|
G---------7--7--|------------------|--------------------------|---------|
D---------7--7--|------------------|--------------------------|---------|
A---------------|------------------|--------------------------|---------|
E---0--0--------|------------------|--2--2--2--2--3--0--2--3--|---------|
B---------------|------/---x---\---|--------------------------|---------|

E------------------------|--------------------------|-------------------|
B------------------------|--------------------------|-------------------|
G------------------------|--------------------------|-------------------|
D------------------------|-----------------------4--|-----3-----2-------|
A---2-----1--------------|--------------------2-----|--2-----5-----4----|
E------3-----2--3--2--0--|--2--2--2--2--3--0--------|-------------------|
B------------------------|--------------------------|-------------------|

E------------|--------------------------|--------------------------|----|
B------------|--------------------------|--------------------------|----|
G------------|--------------------------|--------------------------|----|
D------------|--------------------------|--------------------------|----|
A---0--------|--------------------------|-----2-----1--------------|----|
E------4--3--|--2--2--2--2--3--0--2--3--|--------3-----2--3--2--0--|----|
B------------|--------------------------|--------------------------|----|

E--------------------------------------------------|--------------------|
B--------------------------------------------------|--------------------|
G--------------------------------------------------|--------------------|
D--------------------------------------------------|--------------------|
A------------------------4-----5\4--2--0-----------|--------------7-----|
E---2--2--2--2--3--0--2-----2-------------4--3--2--|--0--0--0--0--------|
B--------------------------------------------------|--------------------|

                    (1/4)
E-------------|---------------------------|-----------------------------|
B-------------|---------------------------|-----------------------------|
G-------------|---------------------------|-----------------------------|
D-------------|-----5^--------------------|-----------------------------|
A---p5-----5--|--7------7--5--------------|--(5)/7--7--7--7--7p5--------|
E-------7-----|---------------7--6--5--3--|-----------------------7-----|
B-------------|---------------------------|-----------------------------|

E------|----------------------------|-------------------------|---------|
B------|----------------------------|-------------------------|---------|
G------|----------------------------|-------------------------|---------|
D------|----------------------------|-------------------------|---------|
A---5--|\4-----4\2---------------5--|--7--7--7--7--7p5-----5--|--7------|
E------|----5-------3--0--(5)/7-----|-------------------7-----|---------|
B------|----------------------------|-------------------------|---------|

     (1/4)
E-------------------------|-----------------------------|---------------|
B-------------------------|-----------------------------|---------------|
G-------------------------|-----------------------------|---------------|
D---5^--------------------|--------------------------7--|---------------|
A-------7--5--------------|--(5)/7--7--7--7--7p5-----5--|-----8---------|
E-------------7--6--3--0--|-----------------------7-----|-----6---------|
B-------------------------|-----------------------------|---------------|

E------------|--------------------------|--------------------------|----|
B------------|--------------------------|--------------------------|----|
G------------|--------------------------|--------------------------|----|
D------------|--------------------------|--------------------------|----|
A---7-----5--|--------------------------|-----2-----1--------------|----|
E---5-----3--|--2--2--2--2--3--0--2--3--|--------3-----2--3--2--0--|----|
B------------|--------------------------|--------------------------|----|

E---------------------------|--------------------------|----------------|
B---------------------------|--------------------------|----------------|
G---------------------------|--------------------------|----------------|
D------------------------4--|-----3-----2--------------|----------------|
A---------------------2-----|--2-----5-----4--0--------|----------------|
E---2--2--2--2--3--0--------|--------------------4--3--|--2--2--2--2----|
B---------------------------|--------------------------|----------------|

E---------------|------------------------|------------------------------|
B---------------|------------------------|------------------------------|
G---------------|------------------------|------------------------------|
D---------------|------------------------|-----------------------4------|
A---------------|-----2-----0h1p0--------|------------------------------|
E---3--0--2--3--|------------------2--0--|--2--2--2--2--3--0--2---------|
B---------------|------------------------|------------------------------|

                                  second guitar doubles bass part
                                             (1/2)
E---|--------------------------|-----------------------|----------------|
B---|--------------------------|--------8--(8)^--------|----------------|
G---|-----------4--5-----------|-----------------9-----|--7h9~~~--7-----|
D---|--5-----------------------|--------------------9--|----------------|
A---|-----0--1--------4--5--6--|-----------------------|----------------|
E---|--------------------------|-----------------------|----------------|
B---|--------------------------|-----------------------|----------------|

E----------------|----------------------------|-------------------------|
B----------------|---------5------------8h10--|/12---------10h12--------|
G----------------|------------(7)/9~~~--------|-----11~~~---------------|
D---(9)\7--5-----|--(5)h6---------------------|-------------------------|
A-------------7--|----------------------------|-------------------------|
E----------------|----------------------------|-------------------------|
B----------------|----------------------------|-------------------------|

        (1)    (1/2)                   (1)
E----------|----------12------|---------------------------|-------------|
B---(12)^--|--14^~~~------12--|--15--15^~~~---------------|--12--12-----|
G----------|------------------|--------------------12h15--|-------------|
D----------|------------------|--------------(12)---------|-------------|
A----------|------------------|---------------------------|-------------|
E----------|------------------|---------------------------|-------------|
B----------|------------------|---------------------------|-------------|

E-------------------------------------------------------|---------------|
B----------15--15p12------12----------------------------|---------------|
G---15p12-------------15------15p12------12h13----------|---------------|
D------------------------------------14---------14------|--12--12-------|
A---------------------------------------------------14--|---------------|
E-------------------------------------------------------|---------------|
B-------------------------------------------------------|---------------|

E---------------------------------------||---5-----3--|-----4-----|-----|
B---------------------------------------||---5-----3--|-----4-----|-----|
G---15--15--14--12---------12--12-------||*--4-----2--|-----3-----|-----|
D-------------------14------------------||*--4-----2--|-----3-----|-----|
A----------------------------------x\---||------------|-----------|-----|
E---------------------------------------||------------|-----------|-----|
B---------------------------------------||------------|-----------|-----|

E---4-----2--|-----5---||------------12---------------|--------10-------|
B---5-----3--|-----6---||--------10------10-----------|-----8------9----|
G---4-----2--|-----5--*||-----9--------------9--------|--7--------------|
D---4-----2--|-----5--*||--9--------------------9--7--|-----------------|
A------------|-----5---||-----------------------------|-----------------|
E------------|---------||-----------------------------|-----------------|
B------------|---------||-----------------------------|-----------------|

E---11-----------|-----------7--------------|--------5-----8------------|
B-------9--------|--------5-----5-----------|-----3-----------6---------|
G----------8-----|-----4-----------4--------|--2-----------------5------|
D----------------|--4--------------------2--|-----------5---------------|
A----------------|--------------------------|---------------------------|
E----------------|--------------------------|---------------------------|
B----------------|--------------------------|---------------------------|

E------|------------12---------------|--------10-----11-----------|-----|
B------|--------10------10-----------|-----8------9------9--------|-----|
G------|-----9--------------9--------|--7-------------------8-----|-----|
D------|--9-----------------------7--|----------------------------|-----|
A------|-----------------------------|----------------------------|-----|
E------|-----------------------------|----------------------------|-----|
B------|-----------------------------|----------------------------|-----|

E------------7--------------|--------5-----8--------||------------------|
B---------5-----5-----------|-----3-----------6-----||------------------|
G------4-----------4--------|--2-----------------5--||*--4h6------------|
D---4--------------------2--|-----------5-----------||*--4-4--4--4------|
A---------------------------|-----------------------||------------------|
E---------------------------|-----------------------||------------------|
B---------------------------|-----------------------||------------------|

                                                        2nd time
E---------------|-------------------|----------------------|------------|
B---------------|-------------------|----------------------|------------|
G---6-----6--6--|--4h6-----7-----7--|--4h6--------6-----6--|--2h4-------|
D---4-----4--4--|--4-4--4--4-----5--|--4-4--4--4--4-----4--|--2-2--2----|
A---------------|-------------------|----------------------|------------|
E---------------|-------------------|----------------------|------------|
B---------------|-------------------|----------------------|------------|

             *** 2nd time?
E-------------------||----------------------|----------------------|----|
B-------------------||----------------------|----------------------|----|
G---4--4-----4-----*||----------------------|----------------------|----|
D---2--4-----2-----*||--4h6-----------6-----|--4h6-----7-----7~~~--|----|
A------2-----2------||--4-4-----4--4--4-----|--4-4--4--4-----5-----|----|
E-------------------||----------------------|----------------------|----|
B-------------------||----------------------|----------------------|----|

E-----------------------|-------------------|----------------------|----|
B-----------------------|-------------------|----------------------|----|
G-----------------------|-------------------|----------------------|----|
D---4h6--------6-----6--|--2h4-----4--------|--4h6--------6-----6--|----|
A---4-4--4--4--4-----4--|--2-2--2--2-----4--|--4-4--4--4--4-----4--|----|
E-----------------------|----------------2--|----------------------|----|
B-----------------------|-------------------|----------------------|----|

                                                             ***
E-----------------------|-------------------|-------------------|-------|
B-----------------------|-------------------|-------------------|-------|
G-----------------------|-------------------|-------------------|-------|
D---4h6-----7-----7~~~--|-------------------|-------------------|-------|
A---4-4--4--4-----5-----|-------------------|----------------4--|--4----|
E-----------------------|--2h4--------4-----|--0h2-----2-----2--|-------|
B-----------------------|--2-2--2--2--2-----|--0-0--0--0-----2--|-------|

E------------------------------------------------|----------------------|
B------------------------------------------------|----------------------|
G------------------------------------------------|----------------------|
D------------------------------------------------|----------------------|
A---5--4-----------------------------------------|--4--5--4-------------|
E---------7--6--5-----4--5--7--5--4-----4--5--7--|-----------7--5--4----|
B------------------7-----------------7-----------|----------------------|

E---------------------------------|-------------------------------------|
B---------------------------------|-------------------------------------|
G---------------------------------|--7--6--7----------------------------|
D------------------------6--7--9--|-----------9--7--6-----6--7--9--7----|
A---------------------9-----------|--------------------9----------------|
E------4--5--7--5--4--------------|-------------------------------------|
B---7-----------------------------|-------------------------------------|

E------------------|----------------------------------------------------|
B------------------|------------------------------------------9--10-----|
G------------------|--6--7--6-----------------------6--7--11------------|
D---6-----6--7--9--|-----------9--7--6-----6--7--9----------------------|
A------9-----------|--------------------9-------------------------------|
E------------------|----------------------------------------------------|
B------------------|----------------------------------------------------|

E-------|--9--10--9-----------------------------------------------------|
B---12--|------------12--10--9------9--10--12--10--9------9--10--12-----|
G-------|-----------------------11--------------------11----------------|
D-------|---------------------------------------------------------------|
A-------|---------------------------------------------------------------|
E-------|---------------------------------------------------------------|
B-------|---------------------------------------------------------------|

E---|--9--10--9--------------------------------------------------|------|
B---|------------12--10--9------9--10--12--10--9------9--10--12--|------|
G---|-----------------------11--------------------11-------------|------|
D---|------------------------------------------------------------|------|
A---|------------------------------------------------------------|------|
E---|------------------------------------------------------------|------|
B---|------------------------------------------------------------|------|

E---9--10--11--12--------------5--6--7--8--------------|--1--2--3--4----|
B------------------6--7--8--9--------------2--3--4--5--|----------------|
G------------------------------------------------------|----------------|
D------------------------------------------------------|----------------|
A------------------------------------------------------|----------------|
E------------------------------------------------------|----------------|
B------------------------------------------------------|----------------|

E---------------------------------------|-------------------------------|
B---------------2--3--4--5--------------|-------------------------------|
G---2--3--4--5--------------------------|--3:--------------6------------|
D---------------------------3--4--5--6--|--4:--------------6------------|
A---------------------------------------|------4--4--4--4--------4------|
E---------------------------------------|-------------------------------|
B---------------------------------------|-------------------------------|

E---------|-----------------------------|--------------5-----------5----|
B---------|--------------7-----------7--|--------------5-----------5----|
G------6--|--------------6-----------6--|-------------------------------|
D------6--|-----------------------------|-------------------------------|
A---4-----|--4--4--4--4--------4--4-----|--4--4--4--4--------4--4-------|
E---------|-----------------------------|-------------------------------|
B---------|-----------------------------|-------------------------------|

E---|-----------------------------|-----------|--------------|----------|
B---|--------------5-----------5--|-----------|--------------|----------|
G---|--------------4-----------4--|-----------|--------------|--4:------|
D---|-----------------------------|-----------|--------------|--4:------|
A---|--4--4--4--4--------4--4-----|-----------|--------------|----------|
E---|-----------------------------|-----------|--------------|----------|
B---|-----------------------------|-----------|--------------|----------|

E------------|-----------|-----------|----------------------------------|
B------------|-----------|-----------|-----------------------------9----|
G------------|-----------|-----------|-------------------8--7--10-------|
D---6-----4--|-----------|-----------|---------8--7--10-----------------|
A---4-----2--|--4-----7--|--2-----5--|--7--10---------------------------|
E------------|--2-----5--|--0-----3--|----------------------------------|
B------------|-----------|-----------|----------------------------------|

E----------9------10--13--12--|--18--18--15-----------------------------|
B---8--11-----12--------------|--------------17--14--------------14-----|
G-----------------------------|----------------------15------15---------|
D-----------------------------|--------------------------17-------------|
A-----------------------------|-----------------------------------------|
E-----------------------------|-----------------------------------------|
B-----------------------------|-----------------------------------------|

E-------15/18--21--21-----|----------------------------|----------------|
B---17--------------------|----------------------------|----------------|
G-------------------------|----------------------------|----------------|
D-------------------------|----------------------------|----------------|
A-------------------------|-----7--9--10-----7--9--10--|-----5--7--9----|
E-------------------------|--7------------7------------|--5-------------|
B-------------------------|----------------------------|----------------|

E---------------|--------------------------|-----------|-----------|----|
B---------------|--------------------------|-----------|-----------|----|
G---------------|--------------------------|-----------|-----------|----|
D---------------|--------------------------|-----------|-----------|----|
A------5--7--9--|-----2--5-----4--5--------|-----------|-----------|----|
E---5-----------|--3--------1--------0--5--|-----------|-----------|----|
B---------------|--------------------------|-----------|-----------|----|

E-------------|-----------------------|------------7--10--|/15p14-------|
B-------------|-----------------------|---------8---------|-------------|
G---1:--------|--3:-------------------|--4h7/9------------|-------------|
D---4:--------|--4:----------------5--|-------------------|-------------|
A-------------|------------2--5/7-----|-------------------|-------------|
E-------------|------0--3-------------|-------------------|-------------|
B-------------|-----------------------|-------------------|-------------|

E-----------------|-----------------------|-----------------------------|
B---15------------|-----------------------|-----------------------------|
G-------14p12p11--|-----------------------|-----------------------------|
D-----------------|--12p11----------------|------------------12--14-----|
A-----------------|---------12------------|----------10--12-------------|
E-----------------|-------------12--10\9--|--10--12---------------------|
B-----------------|-----------------------|-----------------------------|

E-------------------15--17--|--14--11-----------------------------------|
B-----------15--17----------|----------12--10---------------------------|
G---12--14------------------|------------------11--8--------------------|
D---------------------------|-------------------------9--7--------------|
A---------------------------|-------------------------------9--6--------|
E---------------------------|-------------------------------------7-----|
B---------------------------|-------------------------------------------|

E------|----------------------------------------------------------------|
B------|----------------------------------------------------------------|
G------|----------------------------------------------------------------|
D------|----------------------------------------------------------------|
A------|----------------------------------------------------------------|
E---5--|----------------------------------------------------------------|
B------|----------------------------------------------------------------|


V. Another World

E---|---------0--|-----3--x--3--/---5---\--3--------|--------2----------|
B---|---------0--|-----3--x--3---/--5--\---3--------|-----------3-------|
G---|--4:--------|----------------------------------|--------------4----|
D---|--4:--------|--5-----------------------/7p5----|-----4-------------|
A---|------2-----|--3-----------------------------7\|--2----------------|
E---|------0-----|----------------------------------|-------------------|
B---|------------|----------------------------------|-------------------|

       ***
E---|-----------|-----0-------------------------------------------------|
B---|--3-----3--|-----0-------------------------------------------------|
G---|--2-----2--|-------------------------------------------------------|
D---|--0-----0--|-------------------------------------------------------|
A---|--0-----0--|--2----------------------------------------------------|
E---|--x-----x--|--0-----0--0--0--------0--------0--------0--0--0-------|
B---|--3-----3--|-------------------------------------------------------|

E------------|-----3-----------|-----2----------|-----3--2--|-----|-----|
B------------|--------3--------|--------(3)-----|-----3--3--|-----|-----|
G------------|-----------5-----|--4----------4--|--2--2--2--|-----|-----|
D------------|--5-----------5--|--4----------4--|--0--0--0--|--2--|-----|
A------------|--3--------------|--2-------------|--0-----0--|--2--|-----|
E---0--0--0--|-----------------|----------------|-----------|--0--|-----|
B------------|-----------------|----------------|-----------|-----|-----|

    15 measure rest
E---------------------|-----------0--|-----------0--|-----------0--|----|
B---------------------|-----------0--|-----------0--|-----------0--|----|
G---------------------|--------6-----|--------2-----|--------2-----|----|
D---------------------|-----6--------|-----2--------|-----4--------|----|
A---------------------|--4-----------|--0-----------|--------------|----|
E---------------------|--------------|--------------|--2-----------|----|
B---------------------|--------------|--------------|--------------|----|

E------------4--|-----------0--|-----------0--|-----------0--|----------|
B------------4--|-----------0--|-----------0--|-----------0--|----------|
G------------4--|--------6-----|--------2-----|--------2-----|----------|
D---------6-----|-----6--------|-----2--------|-----4--------|----------|
A------6--------|--4-----------|--0-----------|--------------|-----9----|
E---4-----------|--------------|--------------|--2-----------|--7-------|
B---------------|--------------|--------------|--------------|----------|

E---0----------------------------|-----------------7--|-----------3-----|
B---0----------------------------|-----------------8--|-----------------|
G---8-----9-----9----------------|-----------9--------|--------5--------|
D---9-----9h11--9----------------|--------9-----------|-----5-----------|
A------------------11\9--7-------|-----7--------------|--3--------------|
E---------------------------7h9--|--0-----------------|-----------------|
B--------------------------------|--------------------|-----------------|

E---------|--------------|-----------0-------------------------|--------|
B------3--|-----------3--|--------3----------------------------|--------|
G---------|--------0-----|-----2----------------0--------------|--------|
D---------|-----4--------|--0--------------2/4-----4\2p0-------|--------|
A---------|--2-----------|--------------------------------0h2--|--------|
E---------|--------------|-------------------------------------|--0-----|
B---------|--------------|-------------------------------------|--------|

E--------------------|--------------|-----------0--------|--------------|
B------------3-------|-----------3--|-----------0-----3--|--------3-----|
G---------0-----(0)--|--------0-----|--------0-----------|-----2--------|
D------4-------------|-----4--------|-----4--------------|--0-----------|
A---2----------------|--3-----------|--2-----------------|--------------|
E--------------------|--------------|--------------------|--------------|
B--------------------|--------------|--------------------|--------------|

E---2h3--2--------|--------------------|--------------|-----------|-----|
B--------------3--|--------------------|--------------|-----------|-----|
G-----------------|--9--9--------------|--5--5--------|--4--------|-----|
D-----------------|--9--9--------------|--5--5--------|--4--------|-----|
A-----------------|--7--7--------0--2--|--3--3--------|--2--------|-----|
E-----------------|--------------------|--------------|-----------|-----|
B-----------------|--------------------|--------------|-----------|-----|

E------------|--------------------|--------------|-----------|----------|
B------------|--------------------|--------------|-----------|----------|
G------------|--9--9--------------|--5--5--------|--4--------|----------|
D---7--------|--9--9--------------|--5--5--------|--4--------|----------|
A---5--------|--7--7--------0--2--|--3--3--------|--2--------|--5--5----|
E------------|--------------------|--------------|-----------|----------|
B------------|--------------------|--------------|-----------|----------|

                                             tremelo (1) r
E------------------------------------------|----------------|-----------|
B------------------------------------------|----------------|-----------|
G------------------------------------------|/9~~~--14^--14--|--(14)-----|
D---------7--7--7--7-----7--7--7-----7--7--|----------------|-----------|
A---5--5--5--5--5--5-----5--5--5-----5--5--|----------------|-----------|
E------------------------------------------|----------------|-----------|
B------------------------------------------|----------------|-----------|

         (1/2) r               (1)   r    tremelo           (1)
E-----------------|---------------|-------------|---------------10------|
B-----------------|---------------|-------------|----------10^----------|
G---~~~--11^--11--|--(11)~~~--7^--|--7~~~----9--|--(9)~~~---------------|
D-----------------|---------------|------/9-----|-----------------------|
A-----------------|---------------|-------------|-----------------------|
E-----------------|---------------|-------------|-----------------------|
B-----------------|---------------|-------------|-----------------------|

                             (1/2)                 (1)    (*1) r
E---|--(10)~~~--8p7-------/14^--|--14~~~---------17^--|--17^--17--15----|
B---|----------------10~~~------|---------15~~~-------|-----------------|
G---|---------------------------|---------------------|-----------------|
D---|---------------------------|---------------------|-----------------|
A---|---------------------------|---------------------|-----------------|
E---|---------------------------|---------------------|-----------------|
B---|---------------------------|---------------------|-----------------|

                                       (1/2)        (1/2)  r
E---\14--15p14----------------------|-----------------------------------|
B---------------15------------------|-----------------------------------|
G-------------------14\12p11--------|--8^--------8--(8)^--(8)-----------|
D-----------------------------12~~~\|-----------------------------9-----|
A-----------------------------------|-----------------------------------|
E-----------------------------------|-----------------------------------|
B-----------------------------------|-----------------------------------|

                                   (1/2) r                  (1/2)
E------------------|-------------------------------------|--------------|
B------------------|-------------------------------------|--------------|
G---------------8--|--9~~~-----8--(8)^--(8)-----9/11~~~--|--13^~~~------|
D---~~~--9--11-----|-------------------------------------|--------------|
A------------------|-------------------------------------|--------------|
E------------------|-------------------------------------|--------------|
B------------------|-------------------------------------|--------------|

      r      (1/2) r                        (1)
E----------------------------------------|-------9--9-------------------|
B----------------------------------------|--12^--------12p9------9------|
G---(13)--(13)^--(13)------p11h13p11~~~--|-------------------12---------|
D----------------------------------------|------------------------------|
A----------------------------------------|------------------------------|
E----------------------------------------|------------------------------|
B----------------------------------------|------------------------------|

E----------------------------------------------|------------------------|
B----------------------------------17------19--|--17h19--16~~~----------|
G---12p9--11--11--(11)\9~~~---/16------16------|----------------16------|
D----------------------------------------------|------------------------|
A----------------------------------------------|------------------------|
E----------------------------------------------|------------------------|
B----------------------------------------------|------------------------|

E--------------------|------19------------------------------------------|
B----------------16--|--17------16---h17p16------16--17~~~-----16-------|
G---~~~--16--18------|-----------------------18-------------------------|
D--------------------|--------------------------------------------------|
A--------------------|--------------------------------------------------|
E--------------------|--------------------------------------------------|
B--------------------|--------------------------------------------------|

E-----------16--17--19--|--(16)h17~~~--16---h17p16----------------|-----|
B---17--19--------------|---------------------------19~~~--16h17--|-----|
G-----------------------|-----------------------------------------|-----|
D-----------------------|-----------------------------------------|-----|
A-----------------------|-----------------------------------------|-----|
E-----------------------|-----------------------------------------|-----|
B-----------------------|-----------------------------------------|-----|

        trill                                                    ***
E--------------------------------------------------------|--------------|
B---16/-/-/17---------16\12p10--9h10------9--------------|--------------|
G-----------------18------------------11-----11--9--8h9--|--(9)--9------|
D--------------------------------------------------------|-------9------|
A--------------------------------------------------------|-------7------|
E--------------------------------------------------------|--------------|
B--------------------------------------------------------|--------------|

E------------------|-----3--|--------2-----|-----2--2--|-----0-----0----|
B------------------|-----3--|--------------|-----3--3--|-----0-----0----|
G---------9-\------|--------|--4--4-----4--|--2--------|----------------|
D---------9--\-----|--5-----|--4--------4--|--0--------|----------------|
A---------7---\----|--3-----|--2-----------|--0--------|--2-------------|
E------------------|--3-----|--------------|-----------|--0-------------|
B------------------|--------|--------------|-----------|----------------|

E---|--------3-----3--/---5---\--3--------|--------2-----|--------------|
B---|-----3--------3---/--5--\---3--------|--------------|--------------|
G---|-------------------------------------|-----4-----4--|--------7-----|
D---|--5--------------------------/7p5----|--4--------4--|--7-----7-----|
A---|--3--------------------------------7\|--2-----------|--5-----5-----|
E---|--3----------------------------------|--------------|--5-----5-----|
B---|-------------------------------------|--------------|--------------|

E---|----------------------------|--------------------------------------|
B---|----------------------------|--------------------------------------|
G---|--5:------------------------|--------------------------------------|
D---|--8:------------------------|--------------------------------------|
A---|----------------------------|--------------------------------------|
E---|------5--7--5--7---\--2--2--|--------------------------------------|
B---|------3--5--3--5--\---0--0--|--------------------------------------|


VI. The Inevitable Summer

E---|---------------|-----------------|---------------------------------|
B---|---------------|-----------------|---------------------------------|
G---|--3:-----------|-----------------|--7:--(7)h9~~~--(9)~~~p7h9p7-----|
D---|--4:-----------|--------------9--|--4:-----------------------------|
A---|---------------|-----------------|---------------------------------|
E---|---------------|-----------------|---------------------------------|
B---|---------------|-----------------|---------------------------------|

E----|------------------|-------------|----------------12-----10--------|
B----|------------------|-------------|--------12--10------7------------|
G---\|--6~~~--(6)\------|--4h6h7p6p4--|---------------------------7-----|
D----|------------------|-------------|-----9---------------------------|
A----|------------------|-------------|---------------------------------|
E----|------------------|-------------|---------------------------------|
B----|------------------|-------------|---------------------------------|

                                     (1) r
E-------|-------------------|---------------------------------|---------|
B---10--|-------------------|-----7---------------------------|---------|
G-------|--(9)/11~~~--------|-----7--9^--9p7------------------|---------|
D-------|-------------------|-----------------9p7-------------|---------|
A-------|-------------------|----------------------9~~~---\---|---------|
E-------|-------------------|---------------------------------|---------|
B-------|-------------------|---------------------------------|---------|

E--------------------------|--------------------------|-----------------|
B------------------12--14--|--14~~~--12---------------|--(10)h12--------|
G-------------/11----------|-------------11~~~---/11--|-----------------|
D--------------------------|--------------------------|-----------------|
A--------------------------|--------------------------|-----------------|
E--------------------------|--------------------------|-----------------|
B--------------------------|--------------------------|-----------------|

E-----------|---------------------------------------------|----10-------|
B---p10~~~--|------------------------7--8p7h8p7--------7--|h8-----------|
G-----------|-----(7)h9-----9~~~-----------------9--------|-------------|
D-----------|--9------------------------------------------|-------------|
A-----------|---------------------------------------------|-------------|
E-----------|---------------------------------------------|-------------|
B-----------|---------------------------------------------|-------------|

E----------------------------|--------------------------14--|p12p10-----|
B-------8--------12--12------|--12h14--14~~~----------------|-----------|
G------------------------11--|-------------------11h12------|-----------|
D---/9-----9/12--------------|------------------------------|-----------|
A----------------------------|------------------------------|-----------|
E----------------------------|------------------------------|-----------|
B----------------------------|------------------------------|-----------|

E---h12---p10------------------|-------------------------------10-------|
B--------------12p10~~~--8h10--|--11~~~p10p8------------10h13-----------|
G------------------------------|--------------10---h12------------------|
D------------------------------|----------------------------------------|
A------------------------------|----------------------------------------|
E------------------------------|----------------------------------------|
B------------------------------|----------------------------------------|

                   trem
E---13~~~--|p12p10h12~~~p10---------------10-----------|----------------|
B----------|-----------------13p10h11h13------(13)/14--|--(14)~~~-------|
G----------|-------------------------------------------|----------------|
D----------|-------------------------------------------|----------------|
A----------|-------------------------------------------|----------------|
E----------|-------------------------------------------|----------------|
B----------|-------------------------------------------|----------------|

                            (1)     (*1)     (*1)    (*1)  r
E----------------------|-------19-------17-------15--------------17-----|
B---15-----------------|--17^------17^------17^------17^--17p15---------|
G-------(14)h16~~~p14--|------------------------------------------------|
D----------------------|------------------------------------------------|
A----------------------|------------------------------------------------|
E----------------------|------------------------------------------------|
B----------------------|------------------------------------------------|

          (1)  (1)  r           (1)
E---|--(17)^------------------------------------------------------|-----|
B---|---------15^--15--12-----------12----------------------------|-----|
G---|----------------------14--14^------14p11------11-------------|-----|
D---|------------------------------------------14------12---------|-----|
A---|------------------------------------------------------14~~~--|-----|
E---|-------------------------------------------------------------|-----|
B---|-------------------------------------------------------------|-----|

E-----------------------------------------------------------------------|
B---------------------15~~~------14--15--15p14------14------------------|
G-------------14--16---------16-----------------16------16p14-----------|
D---12h14/16---------------------------------------------------16-------|
A-----------------------------------------------------------------------|
E-----------------------------------------------------------------------|
B-----------------------------------------------------------------------|

E------------------------------------|----------------------------------|
B------------------------------------|----------------------------------|
G--------------------------------11--|------12p11------11~~~--11h12-----|
D---14--16--14\12------12\11h12------|--14---------14-------------------|
A------------------14----------------|----------------------------------|
E------------------------------------|----------------------------------|
B------------------------------------|----------------------------------|

E---------------10--|h12/15--12h15p12------12------------|--------------|
B---14--10--12------|------------------15------15p12~~~--|--15h18-------|
G-------------------|------------------------------------|--------------|
D-------------------|------------------------------------|--------------|
A-------------------|------------------------------------|--------------|
E-------------------|------------------------------------|--------------|
B-------------------|------------------------------------|--------------|

                         (1/2) r
E---15--18~~~--15h18--|--17^--17--15------------15h18/20p18~~~--|-------|
B---------------------|---------------18p15h18------------------|-------|
G---------------------|-----------------------------------------|-------|
D---------------------|-----------------------------------------|-------|
A---------------------|-----------------------------------------|-------|
E---------------------|-----------------------------------------|-------|
B---------------------|-----------------------------------------|-------|

E---21~~~---------21---------19-----------|--21---------19--------------|
B----------19~~~------19\17------(17)/19--|------19\17------17\15-------|
G-----------------------------------------|-----------------------------|
D-----------------------------------------|-----------------------------|
A-----------------------------------------|-----------------------------|
E-----------------------------------------|-----------------------------|
B-----------------------------------------|-----------------------------|

E---17---------17---------------------|---------------------------------|
B-------15\14------14~~~------14--15--|--15-----14h15p14\12--(14)p12----|
G-------------------------16----------|---------------------------------|
D-------------------------------------|---------------------------------|
A-------------------------------------|---------------------------------|
E-------------------------------------|---------------------------------|
B-------------------------------------|---------------------------------|

                                                  trem
E-------------------------------------7h10--|p9p7h9---p7----------------|
B---\10--10h12p10\8h10p8\7h8p7p0h7h8--------|-------------10p7----------|
G-------------------------------------------|-------------------9p7-----|
D-------------------------------------------|---------------------------|
A-------------------------------------------|---------------------------|
E-------------------------------------------|---------------------------|
B-------------------------------------------|---------------------------|

              trem           trem
E-------------------------------|-----------------------------7h10------|
B-------------------------------|-----------------------7h10------------|
G---\6h7p6p0--(0)--(0)h2h4/6/7--|p6p4h6~~~---------6h9------------------|
D-------------------------------|-----------(5)/7-----------------------|
A-------------------------------|---------------------------------------|
E-------------------------------|---------------------------------------|
B-------------------------------|---------------------------------------|

     trem
E---/12--|p10h15p12h14~~~--(14)p12--------------------|----t------------|
B--------|--------------------------15p12h14p12~~~p0--|h8--20---p8------|
G--------|--------------------------------------------|-----------------|
D--------|--------------------------------------------|-----------------|
A--------|--------------------------------------------|-----------------|
E--------|--------------------------------------------|-----------------|
B--------|--------------------------------------------|-----------------|

E---t---|-------------------13--------12-------10-------12--------------|
B---20--|--(20)~~~------------------------------------------------13----|
G-------|-----------(8)/10------10\9------9\7------7/9------9/10--------|
D-------|---------------------------------------------------------------|
A-------|---------------------------------------------------------------|
E-------|---------------------------------------------------------------|
B-------|---------------------------------------------------------------|

E----------|------------9--5--------|---------------------|-------------|
B----------|---------7--------6-----|------5--------4-----|-------------|
G---10~~~--|--3:-----------------5--|--5:-----4-----------|--3:--7------|
D----------|--4:--9-----------------|--8:--------7-----5--|--4:---------|
A----------|------------------------|---------------------|-------------|
E----------|------------------------|---------------------|-------------|
B----------|------------------------|---------------------|-------------|

E------8--6--------|------------6--5--4--------------------||-----------|
B---8--------7-----|---------6-----------5-----------------||-----------|
G---------------6--|--6:--5-----------------4--------------||*--4:------|
D------------------|--4:-----------------------6\4p2-------||*--4:------|
A------------------|----------------------------------4p2--||-----------|
E------------------|---------------------------------------||-----------|
B------------------|---------------------------------------||-----------|

E------------------------------------------------|----------------------|
B------------------------------------------------|----------------------|
G------------------------------------------------|----------------------|
D------------------------------------------------|----------------------|
A------------------------------------------------|----------------------|
E------------------------------------------------|----------------------|
B---0h2-----2-----2--0h2-----2-----2--0h2-----2--|-----2--0h2--2--2-----|

                                2x
E-------------------------------||--------------------------------------|
B-------------------------------||--------------------------------------|
G------------------------------*||--------------------------------------|
D------------------------------*||--------------------------------------|
A-------------------------------||--------------------------------------|
E--------------------2p0--------||--------------------------------------|
B---0h2-----2--2--2-------2p0---||--0h2-----2-----2--0h2-----2-----2----|

                  ***
E--------------|-----------||-------------------------------------------|
B--------------|-----------||-------------------------------------------|
G--------------|-----------||*------------------------------------------|
D--------------|-----------||*------------------------------------------|
A--------------|-----------||-------------------------------------------|
E--------------|--2--------||-------------------------------------------|
B---0h2--2--2--|--2--------||---0h2-----2-----2--0h2-----2-----2--0-----|

E-------------|----------------------------------------------|----------|
B-------------|----------------------------------------------|----------|
G-------------|----------------------------------------------|----------|
D-------------|----------------------------------------------|----------|
A-------------|----------------------------------------------|----------|
E-------------|------------------------------------2p0-------|----------|
B---h2-----2--|-----2--0h2--2--2--0h2-----2--2--2-------2p0--|--0h2-----|

E-------------------------------------|---------------------------------|
B-------------------------------------|---------------------------------|
G-------------------------------------|---------------------------------|
D-------------------------------------|---------------------------------|
A-------------------------------------|---------------------------------|
E-------------------------------------|--7--/---9--9--7--9--/---10------|
B------2-----2--0h2-----2-----2--0h2--|--5---/--7--7--5--7---/--8-------|

E--------------||--||---------------------------------------------------|
B--------------||--||---------------------------------------------------|
G-------------*||--||*--------------------------------------------------|
D-------------*||--||*--------------------------------------------------|
A--------------||--||---------------------------------------------------|
E---10--7--5---||--||---------------------------------------------------|
B---8---5--3---||--||---3h5-----5-----5--3h5-----5-----5--3h5-----5-----|

E---|-----------------------------------------------||------------------|
B---|-----------------------------------------------||------------------|
G---|----------------------------------------------*||------------------|
D---|----------------------------------------------*||------------------|
A---|-----------------------------------------------||------------------|
E---|------------------------------------5p4--------||------------------|
B---|-----5--3h5--5--5--3h5-----5--5--5-------5p3---||--0h2-----2-------|

E----------------------------------|------------------------------------|
B----------------------------------|------------------------------------|
G----------------------------------|------------------------------------|
D----------------------------------|------------------------------------|
A----------------------------------|------------------------------------|
E----------------------------------|------------------------------------|
B---2--0h2-----2-----2--0h2-----2--|-----2--0h2--2--2--0h2-----2--2-----|

E----------------|-----------------------------------------|------------|
B----------------|-----------------------------------------|------------|
G----------------|-----------------------------------------|------------|
D----------------|-----------------------------------------|------------|
A----------------|-----------------------------------------|------------|
E------2p0-------|-----------------------------------------|--7---------|
B---2-------2p0--|--0h2-----2-----2--0h2-----2-----2--0h2--|--5---------|

E--------------------------------------|---------|--------|--------4----|
B--------------------------------------|---------|--------|--------5----|
G--------------------------------------|--7:-----|--------|--------4----|
D--------------------------------------|--8:-----|--------|-------------|
A--------------------------------------|---------|--------|-------------|
E----/---9--9--7--9--/---10--10--7--5--|------4--|--------|-------------|
B---/----7--7--5--7---/--8---8---5--3--|------2--|--------|-------------|

E---|--0--|--------|--------|--4--4--|--0--|--6--4--|--------|--4--4----|
B---|--0--|--7--5--|-----7--|--x--5--|--0--|--7--5--|-----7--|--x--5----|
G---|--2--|--6--4--|--6--7--|--6--4--|--2--|--6--4--|--6--7--|--6--4----|
D---|--2--|--------|--4--7--|--6-----|--2--|--------|--4--7--|--6-------|
A---|-----|--------|--------|--------|-----|--------|--------|----------|
E---|-----|--------|--------|--------|-----|--------|--------|----------|
B---|-----|--------|--------|--------|-----|--------|--------|----------|

E---|--0--||----------------------|--------------|----------------------|
B---|--0--||----------------------|--------------|----------------------|
G---|--2--||*---------------------|--------------|----------------------|
D---|--2--||*-----2--4--2h4p2-----|-----4-----4--|-----2--4--2h4p2------|
A---|-----||---4---------------4--|--2-----2-----|--4-------------------|
E---|-----||----------------------|--------------|----------------------|
B---|-----||----------------------|--------------|----------------------|

                                  ***
E------|------------------||--------------------------------------------|
B------|------------------||--------------------------------------------|
G------|--------4~~~-----*||--7:----------------------------------------|
D------|-----2--------2--*||--4:----------------------------------------|
A---4--|--0---------------||--------------------------------------------|
E------|------------------||---------4--5-----2--4-----0--2--------0----|
B------|------------------||------2--------2--------2--------2--4-------|

E---------|-----------------------------------------|-------------------|
B---------|-----------------------------------------|-------------------|
G---------|-----------------------------------------|-------------------|
D---------|-----------------------------------------|-------------------|
A---------|-----------------------------------------|-----4--5-----2----|
E------0--|-----4--5-----2--4-----0--2--------0--3--|--2--2--3-----0----|
B---2-----|--2--------2--------2--------2--4--------|--0--------0-------|

E------------------------------|------------------------|---------------|
B------------------------------|------------------------|---------------|
G------------------------------|--6:--------------------|---------------|
D------------------------------|--8:--------------------|---------------|
A---4--------------------------|------------------------|--3--6--5------|
E---2-----5--7-----4--5-----5--|---------------2--5--4--|---------------|
B------0--3--5--0--2--3--0--3--|------0--4--3-----------|---------------|

                                                ***
E------------|---------|--------|--------|------0--|------0--|----------|
B------------/---7--5--|--------|-----5--|------0--|------0--|----------|
G------------|/--6--4--|--6--7--|--6--4--|--3:--2--|--2:--2--|----------|
D---4--7--6--|---------|--4--7--|--6-----|--8:--2--|--4:--2--|----------|
A------------|---------|--------|--------|---------|---------|----------|
E------------|---------|--------|--------|---------|---------|----------|
B------------|---------|--------|--------|---------|---------|----------|


VII. The Crimson Sunset

E---|-----------------------------------|-------------------------|-----|
B---|-----------------------------------|-------------------------|-----|
G---|--4:--------6--8--9~~~--8p6--------|-----4h6~~~--4-----------|-----|
D---|--4:--6~~~-------------------7~~~--|--7-------------7--6~~~--|-----|
A---|-----------------------------------|-------------------------|-----|
E---|-----------------------------------|-------------------------|-----|
B---|-----------------------------------|-------------------------|-----|

E-----------------------------|---------------------|-------------------|
B-----------------------------|---------------------|-------------------|
G--------4~~~-----------------|---------------------|--------6--8--9----|
D---6h7--------(6)h7p6--4~~~--|-------4~~~----------|--6~~~-------------|
A-----------------------------|--6h7--------7p6--4--|-------------------|
E-----------------------------|---------------------|-------------------|
B-----------------------------|---------------------|-------------------|

                                      (1)
E-------------------------|-----------------------------------|---------|
B-----------9--12--10~~~--|--10--12--12^~~~--12-----9---------|---------|
G---~~~/11----------------|----------------------9-----11~~~--|--8------|
D-------------------------|-----------------------------------|---------|
A-------------------------|-----------------------------------|---------|
E-------------------------|-----------------------------------|---------|
B-------------------------|-----------------------------------|---------|

E------------------------|-----------------------|----------------------|
B------------------------|-----------------------|---------------9------|
G---9--11~~~--9p8--------|-----6--8~~~-----8-----|--9~~~--9--11---------|
D------------------9~~~--|--9-----------6-----6--|----------------------|
A------------------------|-----------------------|----------------------|
E------------------------|-----------------------|----------------------|
B------------------------|-----------------------|----------------------|

E-----------9------11------|--12~~~--|----------------------------------|
B---10--12-----12------12--|---------|-----------------12--13--15-------|
G--------------------------|---------|--12~~~--12--14-------------------|
D--------------------------|---------|----------------------------------|
A--------------------------|---------|----------------------------------|
E--------------------------|---------|----------------------------------|
B--------------------------|---------|----------------------------------|

                         (1)
E---12------14------|--15^~~~--|-----------------------------------|----|
B-------15------15--|----------|-----------------------------------|----|
G-------------------|----------|-----------------------------------|----|
D-------------------|----------|-----------------------------------|----|
A-------------------|----------|--------------------------4--------|----|
E-------------------|----------|-----------------------------------|----|
B-------------------|----------|--2--2--2-----2--2--0--2-----0--0--|----|

E---------------------------------------|-------------------------------|
B---------------------------------------|-------------------------------|
G---------------------------------------|-------------------------------|
D---------------------------------------|-------------------------------|
A---------------------------------------|-------------------------------|
E---------------------------2--0--------|--------------------------0----|
B---2--2--2-----2--2--0--2--------2--0--|--2--2--2-----2--2--0--2-------|

E---------|------------------------------------|------------------------|
B---------|------------------------------------|------------------------|
G---------|------------------------------------|------------------------|
D---------|------------------------------------|------------------------|
A---------|------------------------------------|------------------------|
E---------|-------------------------5-----7p5--|------------------------|
B---2--0--|--0--0--0-----0--0--5h7-----7-------|--2--2--2-----2--2------|

E------------------|-----------------------------------|----------------|
B------------------|-----------------------------------|----------------|
G------------------|-----------------------------------|----------------|
D------------------|-----------------------------------|----------------|
A---------4--------|-----------------------------------|----------------|
E------------------|--------------------------0--------|----------------|
B---0--2-----0--0--|--2--2--2-----2--2--0--2-----2--0--|--0--0--0-------|

E---------------------------|-----------------------------|-----|-------|
B---------------------------|-----------------------------|-----|-------|
G---------------------------|-----------------------------|-----|-------|
D---------------------------|-----------------------------|-----|-------|
A---------------------------|-----------------------------|-----|--2----|
E---------------------------|--4-----4--0-----0--2--0-----|--4--|--0----|
B---0--0--0--0--0-----0--0--|-----4--------4-----------4--|--2--|-------|

E---|-----|-------|---------------------------------------|-------------|
B---|-----|-------|---------------------------------------|-------------|
G---|-----|-------|-----11-----9-----8--------------------|-------------|
D---|-----|-----6/|--7------7-----7-----9--7--6-----------|--6----------|
A---|--5--|-------|------------------------------9--7--6--|--4----------|
E---|--3--|--5----|---------------------------------------|--------4----|
B---|-----|--3----|---------------------------------------|-------------|

E------------------|-----------------------------|----------------------|
B------------------|-----------------------------|----------------------|
G------------------|-----------------------------|----------------------|
D------------------|--------------7-----5-----4--|--6-------------------|
A------4--7--6--4--|--------5--------------------|--4-----------4--7----|
E---5--------------|--3~~~-----3-----3-----3-----|--------4--5----------|
B------------------|-----------------------------|----------------------|

E---------|--------------------||------0-----|-----0-----|--------------|
B---------|--------------------||---------0--|--------0--|-----0--------|
G---------|--------------------||*-----------|-----------|--------3-----|
D---------|--------7--------6--||*--4--------|--2--------|--------------|
A---6--4--|--3--------3--3--3--||---2--------|--0--------|--4-----------|
E---------|--------------------||------------|-----------|--2-----------|
B---------|--------------------||------------|-----------|--------------|

                                                                 3x
E---|-----0-----|-----0-----|-----0-----|-----0-----|-----0------||-----|
B---|--------0--|--------0--|--------0--|--------0--|--------0---||-----|
G---|-----------|-----------|-----------|-----------|-----------*||-----|
D---|-----------|--4--------|--7--------|--7--------|--9--------*||-----|
A---|--5--------|--2--------|--4--------|--5--------|--7---------||-----|
E---|--3--------|-----------|-----------|-----------|------------||-----|
B---|-----------|-----------|-----------|-----------|------------||-----|

E---0--|--0--|-----|--0--|--0--|--0--|-----|-----|-----|-----|-----|----|
B---0--|--0--|--0--|--0--|--0--|--0--|-----|-----|--0--|--0--|--0--|----|
G---4--|--2--|--3--|--4--|--4--|--x--|--7--|--9--|--4--|--2--|--x--|----|
D---4--|--2--|--4--|--5--|--4--|--7--|--7--|--9--|--4--|--2--|--4--|----|
A---2--|--0--|--4--|--5--|--2--|--4--|--5--|--7--|--2--|--0--|--4--|----|
E------|-----|--2--|--3--|-----|-----|-----|-----|-----|-----|--2--|----|
B------|-----|-----|-----|-----|-----|-----|-----|-----|-----|-----|----|

                                             ***
E------|-----|-----|-----|------------|---------|--------|--------|-----|
B---0--|-----|-----|-----|------------|------0--|--------|--------|-----|
G---x--|-----|-----|-----|--5:--------|--4:--0--|--------|--------|-----|
D---5--|--4--|--7--|--7--|--8:--------|--4:--7--|--------|--------|-----|
A---5--|--2--|--4--|--5--|------------|------5--|--------|--------|-----|
E---3--|-----|-----|-----|------------|------3--|--------|--------|-----|
B------|-----|-----|-----|------------|---------|--------|--------|-----|

E---------|--2--|--------|--------|--------|----------------------------|
B---------|--2--|--------|--------|--------|----------------------------|
G---------|--4--|--------|--------|--------|----------------------------|
D---------|--4--|--------|--------|--------|--------2--5--------2--4----|
A---------|--2--|--------|--------|--------|-----2-----------2----------|
E---------|--2--|--------|--------|--------|----------------------------|
B---------|--0--|--------|--------|--------|--0-----------0-------------|

E-------------------------|---------------------------------------------|
B-------------------------|---------------------------------------------|
G-------------------------|---------------------------------------------|
D-----------2-------------|--------0-----------0-----------2--0---------|
A------2h5--------2--5/7--|-----7-----7-----5-----5-----2---------------|
E-------------------------|--5-----------3-----------0------------------|
B---0----------0----------|--------------------------------------3------|

          (1/2)
E-------------|------------------------------------------------|--------|
B-------------|------------------------------------------------|--------|
G-------------|------------------------------------------------|--------|
D-------------|--------2--5--------2--4----------2-------------|--------|
A------0------|-----2-----------2-----------2h5--------2--5/7--|--------|
E---2---------|------------------------------------------------|--5-----|
B---------3^--|--0-----------0-----------0----------0----------|--------|

E---------------------------------------------|-------------------------|
B---------------------------------------------|-------------------------|
G---------------------------------------------|-------------------------|
D------0-----------0-----------2--------------|-------------------------|
A---7-----7-----5-----5-----2-----2--------5--|-------------------------|
E------------3-----------0--------------3-----|-------------------------|
B------------------------------------1--------|-------------------------|



************************************

| x    Dead note
| (n)  Ghost note
| h    Hammer-on
| p    Pull-off
| t    Tapping
| /    Slide up
| \    Slide down
| ~    Vibrato
| s    Slap 
| ^    Bend
| r    Relase

************************************


========================================================================
==                       TABLATURE EXPLANATION                        ==
========================================================================

----------                ----------                ----t---|
----5h8--- Hammeron       ----(8)--- Ghost          ----6---| Tap
----------                ---------- Note           --------|
----8p5--- Pulloff        ----------                --------|
----------                ----------                -----p--|
----5/8--- Slide Up       -----x---- Dead           -----7--| Pop
----------                ---------- Note           --s-----|
----8\5--- Slide Down     ----------                --5-----| Slap
                                                       (1/2)
----------                ||------|| Repeat         --------|
----5~~~-- Vibrato        ||*----*||                ---5^---| Bend
----------                ||*----*||                --------| (1/2 step
----------                ||------||                --------|  in this case)
                             r                        (*1)
----------                ----------                --------|
-4:------- Time           ---5------ Release        ---5----|  Prebend
-4:------- Signature      ----------   Bend         --------|  before
----------                ----------                --------|  playing

==========================================================================
Suggest correction
comments
print report bad tab
20 comments total. Showing first comments.
+1 reply
Bleed Black 190 wrote on April 20 2004, 12:00 am

Welldone!=) Great Tab

+1 reply
Shrek56 10 wrote on July 31 2004, 12:00 am

gr8 tab

+1 reply
Schmorgasblab 72 wrote on December 4 2005, 02:39 pm

I think this is the best tab on the net for this song by far.

guest
You may want to rate the tab now too:
select rating
Wanna post a correction for this tab? Suggest correction