Oops, an error
Loading. Please wait.

A Rite Of Passage Bass Tab

version 1
version 1
10,158 views 3 this week
1 commentread comment
1 2 3 4 5
accurate
x 4
add to favorites
launch autoscroll
font size
0
reset
guitar tuner
Tab Pro tools
  • play this tab
  • loop segment
  • change instrument
  • show fretboard
  • metronome
×
Best way to learn
"A Rite Of Passage"
Autoscroll
slow
fast
+/-
esc
set tempo
stop
need a 5 string bass for this song
tunings
B,E,A,D,G

INTRO
HYPER FUZZ PEDDLE
G----------------------------------------------------------I
D----------------------------------------------------------I
A------------------------------------------------------15--I
E----14H15P14----14H15P14-----------14H15P14--------14-----I
B-15----------15----------15--13-15----------15--13--------I

G----------------------------------------------------------I
D----------------------------------------------------------I
A----------------------------------------------------------I
E----14H15P14----14H15P14-----------14H15H14-----16-17-----I
B-15----------15----------15--13-15----------15--------16--I

MAIN RIFF
G---------------------------------------------------------------------------I
D---------------------------------------------------------------------------I
A-------------------------------------3-------------------------------------I
E---2H3P2---2H3P2--------2H3P2------2-----2H3P2---2H3P2--------2H3P2---4-5--I
B-3-------3-------3--1-3-------3--1-----3-------3-------3--1-3-------3-----4I

PRE VERSE
G-------------------------------------5-------------------------------------I
D-----------------------------------4----------------------------------6-7--I
A---------------------------------3----------------------------------------6I
E---2H3P2---2H3P2--------2H3P2------------2H3P2---2H3P2--------2H3P2--------I
B-3-------3-------3--1-3-------3--------3-------3-------3--1-3-------3------I

G----------I
D----------I
A----------I
E-4-6-4----I
B-------4--I

VERSE
G---------------------------------------------------I
D---------------------------------------------------I
A-----------------------3---------------------------I
E---------------------2----------------------4-5----I
B-333--333--3--333--1------333--333--3--333------4--I

G-----------------------------------I
D-----------------------------------I
A-----------------------------------I
E------1-------3-------3/4-------1--I
B-3-3-----3-3-----3-3-------3-3-----I

PRE CHORUS
G----------------------------------------I
D---2H3P2---2H3P2---------2H3P2----------I
A-0-------0-------0-1-3-0-------0-4-5----I
E-------------------------------------4--I
B----------------------------------------I

CHORUS
G--------------------------I--------------I
D--------------------------I--------------I
A-2-3-0-2~-3/--2-3-0-2~-3/-I-0------------I
E--------------------------I---3333-1111--I
B--------------------------I--------------I

AFTER CHORUS
G-----------------------------------I
D---3---3-5-7-5-3---3---3-5-7-5-3---I
A-5---5-----------5---5-------------I
E-----------------------------------I
B-----------------------------------I

SECOND VERSE
G--------------------------------------------------------------------------I
D---454---454---232---232---020---020---898---898---676---676---454---454--I
A-45---545----23---323----02---202----89---989----67---767----45---545-----I
E--------------------------------------------------------------------------I
B--------------------------------------------------------------------------I

GUITAR SOLO
G---------------------------------------------------------------------------I
D----------------------------1-0-------------------3-2-1~-----2-1-----------I
A------------------------1-2------------------------------1-2---------------I
E---------------------------------------------------------------------------I
B-3-3-3-3-3-3-333-3-3-3-3-------3-3-3-3-333-3-3-333--------------3-3-3-333--I

GUITAR/KEY BOARD SOLO
G----------------------I
D-----------------1-0--I
A-------------1-2------I
E----------------------I
B-4-5-6~--4-7----------I

HERE IT IS HAVE FUN
ALBUM COMES OUT IN JUNE 23 (I THINK)
DREAM THEATER ROCKS!!!!!

H-HAMMER ON
P-PULL OFF
/-SLIDE
~-RING
comments
print report bad tab
1 comment total.
0 reply
BassNTuba wrote on October 22 2013, 10:15 pm

You could just down-tune and turn the 5 on G string into 10 on D string

I want to post or [tab]
guest
You may want to rate the tab now too:
select rating
Please do not post tabs as comments. Select "correction" instead!