Oops, an error
Loading. Please wait.

Afterlife bass

version 1
version 1

Whole song

3,354 views 6 this week
2 commentsread comments
1 2 3 4 5
1 last vote to show rating
add to favorites
×
Save as Personal and add changes to this tab that will be seen only by you. Learn more ›
×
You can save this tab as Personal to edit and correct it or add notes. All changes will be seen only by you. Learn more »
launch autoscroll
font size
0
reset
guitar tuner
backing track
0:00
0:00
edit
Autoscroll
slow
fast
+/-
esc
set tempo
stop
Difficulty
intermediate
 	
/ Dream Theater / When Dream and Day Unite (1989) / Afterlife bass tab

AFTERLIFE (Bassline)
                          As recorded by Dream Theater
                 (From the 1989 Album WHEN DREAM AND DAY UNITE)

Words and Music by Dream Theater
Arranged by Dream Theater
Transcribed by Ekarin_SM

Gtr I (E A D G) - 'Bass'

   Intro
    Q=155                          1.,2.,3.
    N.C.
   4/4
    Gtr I
    E E H.        E E Q  E E E E   E E H.
||--------------|----------------|-------------|
||o-------------|--------7-------|-------------|
||o-4-----------|---5--------5---|-4-----------|
||--------------|----------------|-------------|


                   4.
  Q.   Q.   Q      E E E E E E E E   +E  Q  E Q  Q
|---------------||-----------------|-----------------|
|--------------o||-----------------|-----------------|
|--------------o||-4-5-4-----------|-----------------|
|-7----5----4---||-------7---7---7-|-(7)-2--0-5--4---|


   S S S S S S S S S S S S S S S S    S S S S S S S S S S S S S S S S
|----------------------------------|----------------------------------|
|----------------------------------|----------------------------------|
|--4-4-4-4-4-4-4-4-4-4-4-4-4-4-4-4-|--5-5-5-5-5-5-5-5-5-5-5-5-5-5-5-5-|
|----------------------------------|----------------------------------|


  G#sus4
   S S S S S S S S S S S S S S S S
|-------------------------------------|
|--4-4-4-4-4-4-4-4-4-4-4-4-4-4-4-4----|
|-------------------------------------|
|-------------------------------------|


  Asus4                              C#m
   S S S S S S S S S S S S S S S S    S S S S S S S S S S S S S S S S
|----------------------------------|----------------------------------|
|--6-6-6-6-6-6-7-7-7-7-7-7-6-6-6-6-|----------------------------------|
|----------------------------------|--4-4-4-4-4-4-4-4-4-4-4-4-4-4-4-4-|
|----------------------------------|----------------------------------|



  Dsus2
   S S S S S S S S S S S S S S S S
|-------------------------------------|
|-------------------------------------|
|--5-5-5-5-5-5-5-5-5-5-5-5-5-5-5-5----|
|-------------------------------------|


  N.C.                                    C#m
                   5/4                   4/4
  E E E E E E E E   E E E E E E E Q.       E E Q  E S S Q
|-----------------|--------------------||------------------|
|-----------------|-----4-5------------||------------------|
|-4-5-4-----2-----|---------5---5------||--4-4-4--4-4-4-4--|
|-------7-----5-4-|-2-0----------------||------------------|



                       B
    E   S S Q  E S S E  E    +E  E Q  E S S Q
|-------------------------|----------------------|
|-------------------------|----------------------|
|---4---4-4-4--4-4-4-4--2-|--(2)-2-2--2-2-2-2----|
|-------------------------|----------------------|


                      C#m                                        C#m    G#m
   E S S Q   E S S  E  E    +E  E Q  E S S Q     S S S S S S S S  E  Q   E
|------------------------|--------------------|----------------------------|
|------------------------|--------------------|----------------------------|
|--2-2-2-2---2-2-2--2--4-|--(4)-4-4--4-4-4-4--|--4-4-4-4-4-4-4-4--4--------|
|------------------------|--------------------|--------------------------4-|

                                                  C#m
   +E  E Q  E S S Q     S S  E  S S  E  E  S S  E  E
|--------------------|---------------------------------||
|--------------------|---------------------------------||
|--------------------|-----------------------------4---||
|--(4)-4-4--4-4-4-4--|--4-4--4--4-2--4--2--4-2--0------||


 Verse 1
                                            G#m
   +E  E Q  E S S Q      E   S S Q  E S S E  E    +E  E Q  E S S Q
|--------------------|-------------------------|--------------------|
|--------------------|-------------------------|--------------------|
|--(4)-4-4--4-4-4-4--|---4---4-4-4--4-4-4-4--6-|--(6)s4-4--4-4-4-4--|
|--------------------|-------------------------|--------------------|


                       C#m
    E   S S Q  E S S E  E    +E  E Q  E S S Q
|-------------------------|----------------------|
|-------------------------|----------------------|
|---4---4-4-4--4-4-4-4--7-|--(7)s4-4--4-4-4-4----|
|-------------------------|----------------------|


                       B
    E   S S Q  E S S E  E    +E   E   Q  E S S Q
|-------------------------|-----------------------|
|-------------------------|-----------------------|
|---4---4-4-4--4-4-4-4--9-|--(9)s=4---4--4-4-4-4--|
|-------------------------|-----------------------|


                      E5/F#                                         Esus4
   E   S S Q  E S S E  E    +E  E Q  E S S Q     E S S Q   E S S  E  E
|------------------------|--------------------|-------------------------|
|------------------------|--------------------|-------------------------|
|--4---4-4-4--4-4-4-4--2-|--(2)-2-2--2-2-2-2--|--2-2-2-2---2-2-2--2--0--|
|------------------------|--------------------|-------------------------|


                                              Bridge
                                         C#m
   +E  E Q  E S S Q      E   E E E E E E  E     +E  E Q  E S S Q
|--------------------|----------------------||--------------------|
|--------------------|----------------------||--------------------|
|--(0)-0-0--0-0-0-0--|---0---0-0-0-0-0-0--4-||--(4)-4-4--4-4-4-4--|
|--------------------|----------------------||--------------------|


                       B
    E   S S Q  E S S E  E    +E  E Q  E S S Q
|-------------------------|--------------------|
|-------------------------|--------------------|
|---4---4-4-4--4-4-4-4--2-|--(2)-2-2--2-2-2-2--|
|-------------------------|--------------------|


                       C#m                                                G#m
    E   S S Q  E S S E  E    +E  E Q  E S S Q      S   S S S S S S S E Q   E
|-------------------------|--------------------|-----------------------------|
|-------------------------|--------------------|-----------------------------|
|---2---2-2-2--2-2-2-2--4-|--(4)-4-4--4-4-4-4--|---4---4-4-4-4-4-4-4-4-------|
|-------------------------|--------------------|---------------------------4-|


                                                  C#m
   +E  E Q  E S S Q     S S  E  S S  E  E  S S  E  E
|--------------------|---------------------------------||
|--------------------|---------------------------------||
|--------------------|-----------------------------4---||
|--(4)-4-4--4-4-4-4--|--4-4--4--4-2--4--2--4-2--0------||


 Verse 2
                                            G#m
   +E  E Q  E S S Q      E   S S Q  E S S E  E    +E  E Q  E S S Q
|--------------------|-------------------------|--------------------|
|--------------------|-------------------------|--------------------|
|--(4)-4-4--4-4-4-4--|---4---4-4-4--4-4-4-4--6-|--(6)s4-4--4-4-4-4--|
|--------------------|-------------------------|--------------------|

                       C#m
    E   S S Q  E S S E  E    +E  E Q  E S S Q
|-------------------------|----------------------|
|-------------------------|----------------------|
|---4---4-4-4--4-4-4-4--7-|--(7)s4-4--4-4-4-4----|
|-------------------------|----------------------|


                       B
    E   S S Q  E S S E  E    +E  E Q   E S S Q
|-------------------------|---------------------|
|-------------------------|---------------------|
|---4---4-4-4--4-4-4-4--9-|--(9)s4-4---4-4-4-4--|
|-------------------------|---------------------|

                        E5/F#                                           Esus4
   E S S  Q    E S S  E  E    +E  E Q  E S S Q     E S S  Q    E S S  E  E
|--------------------------|--------------------|---------------------------|
|--------------------------|--------------------|---------------------------|
|--4-4-4--4----4-4-4--4--2-|--(2)-2-2--2-2-2-2--|--2-2-2--2----2-2-2--2--0--|
|--------------------------|--------------------|---------------------------|


   +E  E Q  E S S Q      E  E E E E E E E
|--------------------|--------------------||
|--------------------|--------------------||
|--(0)-0-0--0-0-0-0--|---0--0-0-0-0-0-0-0-||
|--------------------|--------------------||


 Bridge
  N.C.
   S S S S S S S S S S S S S S S S    S S S S S S S S S S S S S S S S
|----------------------------------|-----------------------------------|
|----------------------------------|-----------------------------------|
|--4-4-4-4-4-4-4-4-4-4-4-4-4-4-4-4-|--5-5-5-5-5-5-5-5-5-5-5-5-5-5-5-5--|
|----------------------------------|-----------------------------------|


  G#sus4                             Asus4
   S S S S S S S S S S S S S S S S    S S S S S S S S S S S S S S S S
|----------------------------------|----------------------------------|
|--4-4-4-4-4-4-4-4-4-4-4-4-4-4-4-4-|--6-6-6-6-6-6-7-7-7-7-7-7-6-6-6-6-|
|----------------------------------|----------------------------------|
|----------------------------------|----------------------------------|


  C#m
   S S S S S S S S S S S S S S S S
|-------------------------------------|
|-------------------------------------|
|--4-4-4-4-4-4-4-4-4-4-4-4-4-4-4-4----|
|-------------------------------------|


  Dsus2
   S S S S S S S S S S S S S S S S
|----------------------------------|
|----------------------------------|
|--5-5-5-5-5-5-5-5-5-5-5-5-5-5-5-5-|
|----------------------------------|


  N.C.
  S S S S S S S S S S S S S S S S   S S S S S S S S S S S S E S S
|---------------------------------|-------------------------------||
|---------------------------------|-------------------------------||
|-4-4-4-4-4-4-2-2-2-2-2-2-0-0-0-0-|-0-0---------------------------||
|---------------------------------|-----4-4-4-4-4-4-2-2-2-2-0-0-0-||


 Verse 3
  C#m                                           G#m
   E E Q  S S S S Q      S   S S S Q  S S S S E  E
|--------------------|-----------------------------|
|--------------------|-----------------------------|
|--4-4-4--4-4-4-4-4--|---4---4-4-4-4--4-4-4-4-4--6-|
|--------------------|-----------------------------|


                                                C#m
   +E  E Q  S S S S Q      S   S S S Q  S S E E  E    +E  E Q  S S S S Q
|----------------------|---------------------------|----------------------|
|----------------------|---------------------------|----------------------|
|--(6)s4-4--4-4-4-4-4--|---4---4-4-4-4--4-4-4-4--7-|--(7)s4-4--4-4-4-4-4--|
|----------------------|---------------------------|----------------------|


                         G#m                                       E5/F#
    S   S S S Q  E S S E  E    +E  E Q  H       H..                 E
|---------------------------|----------------|------------------------|
|---------------------------|----------------|------------------------|
|---4---4-4-4-4--4-4-4-4--9-|--(9)s4-4-------|----------------------2-|
|---------------------------|----------------|------------------------|


                                                   Esus4
   +E  E Q  S S S S Q     S S S S  Q    S S S S  E  E
|----------------------|------------------------------|
|----------------------|------------------------------|
|--(2)-2-2--2-2-2-2-2--|--2-2-2-2--2----2-2-2-2--2--0-|
|----------------------|------------------------------|


                                           C#m
   +E  E Q  S S S S Q      E   E E E E E E  E
|----------------------|----------------------|
|----------------------|----------------------|
|--(0)-0-0--0-0-0-0-0--|---0---0-0-0-0-0-0--4-|
|----------------------|----------------------|


  $
              B                A                N.C.
   +H..        E    +H..        E    +H..       E
|----------------|----------------|------------------|
|----------------|----------------|------------------|
|--(4)---------2-|--(2)-----------|-------------5----|
|----------------|--------------5-|--(5)-------------|


                           Chorus
                                    F#m    Asus2/F#
  +E  E  E  E +E  E E  E      E   E  E E E  E E E
|------------------------||-----------------------|
|-----------7-(7)-6------||-----------------------|
|-(5)-7--9----------7--9s||===2-------------------|
|------------------------||-------2--2-2-2--2-2-2-|


  D/F#   F#m  Asus2C#/F                  G#m/F    Fm6    C#/F G#m/FE
   E E E  E E  E E  E    +E   E    E E E  E E E    E E E  E E  E E E
|---------------------|-------------------------|--------------------|
|---------------------|------------7------6-6-6-|--6-6-6--6-7s=9-9---|
|-------------------4-|--(4)--4------4-4--------|------------------7-|
|--2-2-2--2-2--2-2----|-------------------------|--------------------|


                                       B                 N.C.
  +E  E E E E E E E    E   E E E E E E E   +E   E E H     E
|-------------------|--------------------|------------------|
|-------------------|--------------------|------------------|
|-(7)---------------|------------------6-|-(6)--6-6-------5-|
|-----0-0-0-0-0-0-0-|--0---0-0-0-0-0-0---|----------7-------|


   +E  E   E   E  +E  E E E   +E   E  E E E E  E  E
|---------------------------|------------------------|
|--------------7--(7)-6-----|---------4--------4-----|
|--(5)-7---9------------7-9-|-(9)--------------------|
|---------------------------|------2----2-2-2-----2--|



                       F
   E  E  E  E  E  E  E  E    +E  E E E E E E E
|-------------------------|--------------------|
|--------4-----------4----|--------7-----6-6-6-|
|-----------------------4-|--(4)-4---4-4-------|
|--2--2-----2--2--2-------|--------------------|


                    E                                           B
    E   E E E E E E  E    +E  E E E E E E E     E   E E E E E E E
|----------------------|--------------------|----------------------|
|---6---6-6-6-7s9-9----|--------------------|----------------------|
|--------------------7-|--(7)---------------|-------------------6--|
|----------------------|------0-0-0-0-0-0-0-|---0---0-0-0-0-0-0----|


                             To Coda
                N.C.
  +E   E E H    E   +E  E E E E E E E
|-----------------|-------------------||
|-----------------|---------7-6-------||
|-(6)--6-6-6----5-|-(5)-7-9-----9-7-5-||
|-----------------|-------------------||


 Bridge
   S S S S S S S S S S S S S S S S    S S S S S S S S S S S S S S S S
|----------------------------------|------------------------------------|
|----------------------------------|------------------------------------|
|--4-4-4-4-4-4-4-4-4-4-4-4-4-4-4-4-|--5-5-5-5-5-5-5-5-5-5-5-5-5-5-5-5---|
|----------------------------------|------------------------------------|

  G#sus4                             Asus4
   S S S S S S S S S S S S S S S S    S S S S S S S S S S S S S S S S
|----------------------------------|----------------------------------|
|--4-4-4-4-4-4-4-4-4-4-4-4-4-4-4-4-|--6-6-6-6-6-6-7-7-7-7-7-7-6-6-6-6-|
|----------------------------------|----------------------------------|
|----------------------------------|----------------------------------|

  C#m
   S S S S S S S S S S S S S S S S
|-------------------------------------|
|-------------------------------------|
|--4-4-4-4-4-4-4-4-4-4-4-4-4-4-4-4----|
|-------------------------------------|


  Dsus2                              N.C.
                                                      5/4
   S S S S S S S S S S S S S S S S   E E E E E E E E   E E E E E E E Q.
|----------------------------------|-----------------|--------------------||
|----------------------------------|-----------------|-----4-5------------||
|--5-5-5-5-5-5-5-5-5-5-5-5-5-5-5-5-|-4-5-4-----2-----|---------5---5------||
|----------------------------------|-------7-----5-4-|-2-0----------------||


 Verse 4
  C#m                                           G#m
 4/4
   E E Q  S S S S Q      S   S S S Q  S S S S E  E
|--------------------|-----------------------------|
|--------------------|-----------------------------|
|--4-4-4--4-4-4-4-4--|---4---4-4-4-4--4-4-4-4-4--6-|
|--------------------|-----------------------------|


                                                C#m
   +E  E Q  S S S S Q      S   S S S Q  S S E E  E
|----------------------|----------------------------|
|----------------------|----------------------------|
|--(6)s4-4--4-4-4-4-4--|---4---4-4-4-4--4-4-4-4--7--|
|----------------------|----------------------------|


                                                G#m
   +E  E Q  S S S S Q      S   S S S Q  E S S E  E
|----------------------|---------------------------|
|----------------------|---------------------------|
|--(7)s4-4--4-4-4-4-4--|---4---4-4-4-4--4-4-4-4--9-|
|----------------------|---------------------------|


                         N.C.
   +E  E Q  S S S S Q     S S  S S  Q   S S  E  E  E
|----------------------|-----------------------------|
|----------------------|-----------------------------|
|--(9)s4-4--4-4-4-4-4--|--4-4--4-4--4---4-4--4--4--2-|
|----------------------|-----------------------------|


                                                           Esus4
  +E   E  Q   S S  S  S Q     S S  S S  Q     S S S S   E   E
|--------------------------|----------------------------------|
|--------------------------|----------------------------------|
|-(2)--2--2---2-2--2--2-2--|--2-2--2-2--2-----2-2-2-2---2---0-|
|--------------------------|----------------------------------|


                               D.S. al Coda
                                           C#m
   +E  E Q  S S S S Q      E   E E E E E E  E
|----------------------|------------------------||
|----------------------|------------------------||
|--(0)-0-0--0-0-0-0-0--|---0---0-0-0-0-0-0--4---||
|----------------------|------------------------||

 Breakdown
  &
  C#m                     N.C.
              >
  W          +W           W
|----------|------------|-6--------|
|----------|------------|----------|
|-4--------|-(4)--------|----------|
|----------|------------|----------|


  +W           W          +H.       Q     W
|-(6)--------|-4--------|-(4)------16s=|=20----|
|------------|----------|--------------|-------|
|------------|----------|--------------|-------|
|------------|----------|--------------|-------|


   +H      +E   +E  E E   +W
|-(20)----(20)-(20)s6---|------------|
|---------------------4-|-(4)--------|
|-----------------------|------------|
|-----------------------|------------|


  +W             E. E E H    S   E. E E. H     3x
|------------||----------------|---------------||
|-(4)--------||o---------------|--------------o||
|------------||o-4--4----------|-4--4---------o||
|------------||--------------4-|---------------||


  S S S S S S S S S S S S S S S S   S S S S S S S S S S S S S S S S
|---------------------------------|----------------------------------||
|-1-----------2-1---------4-------|-----2-1---------4-------2-1------||
|---4-2-2-2-2-----2-2-2-2---1-2-2-|-2-2-----2-2-2-2---1-2-2-----2-2--||
|---------------------------------|----------------------------------||


 Guitar Solo
  C#m                                     G#m
   E E Q  E S S Q      E   S S Q  E S S E  E    +E  E Q  E S S Q
|------------------|-------------------------|--------------------|
|------------------|-------------------------|--------------------|
|--4-4-4--4-4-4-4--|---4---4-4-4--4-4-4-4--4-|--(4)-4-4--4-4-4-4--|
|------------------|-------------------------|--------------------|


                       E5/F#
    E   S S Q  E S S E  E    +E  E Q  E S S Q
|-------------------------|----------------------|
|-------------------------|----------------------|
|---4---4-4-4--4-4-4-4--2-|--(2)-2-2--2-2-2-2----|
|-------------------------|----------------------|


                       Esus4                     D                            C#m
    E   S S Q  E S S E  E    +E  E Q  E S S Q     S   S S S E S S S S S S S S  E
|-------------------------|--------------------|---------------------------------|
|-------------------------|--------------------|---------------------------------|
|---2---2-2-2--2-2-2-2--0-|--(0)-0-0--0-0-0-0--|--5---5-5-5-5-5-5-5-5-5-5-5-5--4-|
|-------------------------|--------------------|---------------------------------|


                                            G#m
   +E  E Q  E S S Q      E   S S Q  E S S E  E
|--------------------|--------------------------|
|--------------------|--------------------------|
|--(4)-4-4--4-4-4-4--|---4---4-4-4--4-4-4-4--4--|
|--------------------|--------------------------|

                                            E5/F#
                         |--3--| |-3-|
   +E  E Q  E S S Q      E   E E E E E E Q   E    +E  E Q  E S S Q
|--------------------|-------------------------|--------------------|
|--------------------|-------------------------|--------------------|
|--(4)-4-4--4-4-4-4--|---4---4-4-4-4-4-4-----2-|--(2)-2-2--2-2-2-2--|
|--------------------|-------------------------|--------------------|


                       Esus4
    E   S S Q  E S S E  E    +E  E Q  E S S Q
|-------------------------|----------------------|
|-------------------------|----------------------|
|---2---2-2-2--2-2-2-2--0-|--(0)-0-0--0-0-0-0----|
|-------------------------|----------------------|

                                 Guitar - Keyboard
  D                          N.C.
   S   S S S E S S S S S S E E    E E E E E E E E
|------------------------------||-----------------|
|------------------------------||-----------------|
|--5---5-5-5-5-5-5-5-5-5-5-5-9s||=2---------------|
|------------------------------||---2-2-2-2-2-2-2-|


 Solo
  E E E E E E E E   +E  E E E E E E E   E E E E E E E E
|-----------------|-------------------|-----------------|
|-----------------|-------7-----6-6-6-|-6-6-6-6-7s9-9---|
|---------------4-|-(4)-4---4-4-------|---------------7-|
|-2-2-2-2-2-2-2---|-------------------|-----------------|

  +E  E E E E E E E   E E E E E E E E   +E  E E H    E
|-------------------|-----------------|----------------|
|-------------------|-----------------|----------------|
|-(7)---------------|---------------6-|-(6)-6-6------5-|
|-----0-0-0-0-0-0-0-|-0-0-0-0-0-0-0---|---------7------|


  +E  E E Q  E E E   +E  E E E E E E E
|------------------|--------------------|
|------------------|-------4-------4----|
|-(5)-5---7--7---9-|-(9)----------------|
|------------------|-----2---2-2-2---2--|


  E E E E E E E E   +E  E E E E E E E   E E E E E E E E
|-----------------|-------------------|-----------------|
|-----4-------4---|-------7-----6-6-6-|-6-6-6-6-7s9-9---|
|---------------4-|-(4)-4---4-4-------|---------------7-|
|-2-2---2-2-2-----|-------------------|-----------------|


  +E  E E E E E E E   E E E E E E E E
|-------------------|------------------|
|-------------------|------------------|
|-(7)---------------|---------------6--|
|-----0-0-0-0-0-0-0-|-0-0-0-0-0-0-0----|


                                         Chorus
  +E  E E H    E   +E  E E E +E  E E E    E E E E E E E E
|----------------|---------------------||-----------------|
|----------------|---------7-(7)-6-----||-----------------|
|-(6)-6-6-6----5-|-(5)-7-9---------7-9s||=2---------------|
|----------------|---------------------||---2-2-2-2-2-2-2-|


                          C#/F    G#m/F     Fm6     C#/F G#m/FE
  E E E E E E E E   +E  E  E  E E  E  E E    E  E E  E E  E E E
|-----------------|-----------------------|---------------------|
|-----------------|--------7-------6--6-6-|--6--6-6--6-7s=9-9---|
|---------------4-|-(4)-4-----4-4---------|-------------------7-|
|-2-2-2-2-2-2-2---|-----------------------|---------------------|


                                       B                 D
  +E  E E E E E E E    E   E E E E E E E   +E   E E H    E
|-------------------|--------------------|-----------------|
|-------------------|--------------------|-----------------|
|-(7)---------------|------------------6-|-(6)--6-6------5-|
|-----0-0-0-0-0-0-0-|--0---0-0-0-0-0-0---|----------7------|


          E      F#m                    Amaj7
  +E  E E Q  E E  E    +E  E  E  E E  E  E E
|-------------------|-------------------------|
|-------------------|---------4----------4----|
|-(5)-5---7--7----9-|--(9)--------------------|
|-------------------|------2-----2-2--2----2--|


  A                E                      A5/B   E5/B             A5/B
   E   E E E E E E  E    +E  E  E  E E  E  E E    E   E E E E E E  E
|---------------------|------------------------|---------------------|
|--------4-------4----|---------7-------6--6-6-|--6---6-6-6-7s9-9----|
|-------------------4-|--(4)-4-----4-4---------|-------------------7-|
|--2---2---2-2-2------|------------------------|---------------------|


              E5/B            E        E5/B
   +E  E   E   E   E  E E E    E E E E  E E E E
|---------------------------|--------------------|
|---------------------------|--------------------|
|--(7)----------------------|-----------------6--|
|------0---0---0---0--0-0-0-|--0-0-0-0--0-0-0----|


  B                N.C.
  +E   E E E E E E E   +E  E E E E E E E
|--------------------|-------------------||
|--------------------|---------7-6-------||
|-(6)--6-6-6-6-6-6-5-|-(5)-7-9-----9-7-5-||
|--------------------|-------------------||


 Outro
   S S S S S S S S S S S S S S S S    S S S S S S S S S S S S S S S S
|----------------------------------|------------------------------------|
|----------------------------------|------------------------------------|
|--4-4-4-4-4-4-4-4-4-4-4-4-4-4-4-4-|--5-5-5-5-5-5-5-5-5-5-5-5-5-5-5-5---|
|----------------------------------|------------------------------------|


  G#sus4                             Asus4
   S S S S S S S S S S S S S S S S    S S S S S S S S S S S S S S S S
|----------------------------------|----------------------------------|
|--4-4-4-4-4-4-4-4-4-4-4-4-4-4-4-4-|--6-6-6-6-6-6-7-7-7-7-7-7-6-6-6-6-|
|----------------------------------|----------------------------------|
|----------------------------------|----------------------------------|


  C#m
   S S S S S S S S S S S S S S S S
|-------------------------------------|
|-------------------------------------|
|--4-4-4-4-4-4-4-4-4-4-4-4-4-4-4-4----|
|-------------------------------------|


  Dsus2
   S S S S S S S S S S S S S S S S
|----------------------------------|
|----------------------------------|
|--5-5-5-5-5-5-5-5-5-5-5-5-5-5-5-5-|
|----------------------------------|


  N.C.
                                   3/4
  S S S S S S S S S S S S S S S S   S S S S S S S S S S S S
|---------------------------------|--------------------------*|
|---------------------------------|--------------------------*|
|-4-4-4-4-4-4-4-4-4-4-4-4-4-4-4-4-|-5-5-5-5-5-5-5-5-5-5-5-5--*|
|---------------------------------|--------------------------*|


Duration Legend
---------------
W - whole; H - half; Q - quarter; E - 8th; S - 16th; T - 32nd; X - 64th; a - acciaccatura
+ - note tied to previous; . - note dotted; .. - note double dotted
Uncapitalized letters represent notes that are staccato (1/2 duration)
Irregular groupings are notated above the duration line
Duration letters will always appear directly above the note/fret number it represents the
duration for.  Duration letters with no fret number below them represent rests.  Multi-
bar rests are notated in the form Wxn, where n is the number of bars to rest for.  Low
melody durations appear below the staff

Tablature Legend
----------------
 h   - hammer-on
 p   - pull-off
 b   - bend
 pb  - pre-bend
 r   - bend release (if no number after the r, then release immediately)
 /\  - slide into or out of (from/to "nowhere")
 s   - legato slide
 S   - shift slide
  - natural harmonic
[n]  - artificial harmonic
n(n) - tapped harmonic
 ~   - vibrato
 tr  - trill
 T   - tap
 TP  - trem. picking
 PM  - palm muting
\n/  - tremolo bar dip; n = amount to dip
 \n  - tremolo bar down
 n/  - tremolo bar up
/n\  - tremolo bar inverted dip
 =   - hold bend; also acts as connecting device for hammers/pulls
 <>  - volume swell (louder/softer)
 x   - on rhythm slash represents muted slash
 o   - on rhythm slash represents single note slash

Misc Legend
-----------
 |  - bar
||  - double bar
||o - repeat start
o|| - repeat end
*|  - double bar (ending)
 :  - bar (freetime)
 $  - Segno
 &  - Coda
Tempo markers -  = BPM(8/16=s8/s16), where s8 = swing 8ths, s16 = swing 16ths


***************************************************************************************
* Generated using Power Tab Editor by Brad Larsen - http://powertab.guitarnetwork.org *
***************************************************************************************

            
            
Suggest correction
Creating personal tab
Creating personal tab
You can edit any tab online and save it as your Personal.

You can edit, replace or remove any tab part or add personal notes – all changes will be seen only by you.

Personal tabs can be accessed anytime from any device, even offline.
Learn more »
Give kudos to tab author, rate the tab!
1 2 3 4 5
comments
print report bad tab
2 comments total.
0 reply
EthantheBassist 93 Jul 26, 2007 10:09 AM

these are horrible tabs they don't even sound like it

0 reply
EthantheBassist 93 Nov 25, 2007 12:03 PM

you could do better,they kinda sound like it

guest
Wanna post a correction for this tab? Suggest correction