Oops, an error
Loading. Please wait.

Afterlife bass

version 2
version 2

Whole song

1,929 views 1 this week
1 commentread comment
1 2 3 4 5
1 last vote to show rating
add to favorites
×
Save as Personal and add changes to this tab that will be seen only by you. Learn more ›
×
You can save this tab as Personal to edit and correct it or add notes. All changes will be seen only by you. Learn more »
launch autoscroll
font size
0
reset
guitar tuner
backing track
0:00
0:00
edit
Autoscroll
slow
fast
+/-
esc
set tempo
stop
Author
Difficulty
Afterlife Dream Theater

Tabbed by: EthantheBassist          
email: EthantheBassist@sbcglobal.net
Tuning: E A D G

Tab difficulty is based upon SPEED and NOTE Accuracy

Intro
G|------------------|------------------|------------------|---------|
D|------------------|------------------|------------------|---------|
A|-5-6-12-6-5-------|-5-6-12-6-5-------|-5----------------|-5-------|
E|------------8-6-5-|------------8-6-5-|---10-10-10-8-6-5-|---10-10-|

Riff A                        This part is really FAST
G|--------------------------|---------------------------|
D|--------------------------|---------------------------|
A|--------------------------|-555555555555-666666666666-|
E|-10-11-10-8-8-8-0-6-0-6-5-|---------------------------|

Continued...
G|-------------------------------------------------------|
D|-------------------------------------------------------|
A|-10-10-10-10-10-10-10-10-10-12-12-12-12-12-12-12-12-12-|
E|-------------------------------------------------------|

Continued...
G|---------------------------|----------------------------|
D|---------------------------|----------------------------|
A|-555555555555-666666666666-|----------------0-10-11-6-6-|                
E|---------------------------|-10-11-10-8-8-8-------------|
                             
Riff B                   
G|---------------------------------------------------------|---------------|
D|---------------------------------------------------------|---------------|
A|-0-00-5-0-00-5-0-00-5-0-00-3-0-00-3-0-00-3-0-00-5-h8-7-0-|---------------|
E|---------------------------------------------------------|-0-555-333-111-|

Riff C
G|-----------------------------------------------------------------|
D|-----------------------------------------------------------------|
A|-0-00-5-0-00-5-0-00-5-0-00-7-p-5-0-00-5-0-00-5-0-00-5-0-00-8-p-5-|
E|-----------------------------------------------------------------|

Continued...
G|-------------------------------------------------------------------------|
D|-------------------------------------------------------------------------|
A|-0-00-5-0-00-5-0-00-5-0-00-7-p5-0-00-5-0-00-5-0-00-3-0-00-3-1111111111111|
E|-------------------------------------------------------------------------|

Continued...
G|---------------------------------------------------|---------------|
D|---------------------------------------------------|---------------|
A|-0-00-5-0-00-5-0-00-3-0-00-3-0-00-5-0-00-5-h-8-7-0-|---------------|
E|---------------------------------------------------|-0-555-333-111-|

Riff D
G|-----------------------------------------------------------------|
D|-----------------------------------------------------------------|
A|-0-00-5-0-00-5-0-00-5-0-00-7-p-5-0-00-5-0-00-5-0-00-5-0-00-8-p-5-|
E|-----------------------------------------------------------------|

Continued...
G|-------------------------------------------------------------|
D|-------------------------------------------------------------|
A|-0-00-5-0-00-5-0-00-5-0-00-7-p-5-0-00-3-0-00-3-11111111111111|
E|-------------------------------------------------------------|

Riff E             This part is fast
G|------------------------------------------------------|
D|------------------------------------------------------|
A|-555555555555-666666666666-10-10-10-10-10-10-10-10-10-|
E|------------------------------------------------------|

Continued...       This part is fast
G|------------------------------------------------------|
D|------------------------------------------------------|
A|-12-12-12-12-12-12-12-12-12-555555555555-666666666666-|
E|------------------------------------------------------|

Continued...       This part is fast
G|------------------------------------------------------|
D|------------------------------------------------------|
A|------------------------------------------------------|
E|-10-10-10-10-10-10-888888-666666-555555-333333-111111-|

Riff F
G|-----------------------------------------------------------------|
D|-----------------------------------------------------------------|
A|-0-00-5-0-00-5-0-00-5-0-00-7-p-5-0-00-5-0-00-5-0-00-5-0-00-8-p-5-|
E|-----------------------------------------------------------------|

Continued...
G|-------------------------------------------------------------------------|
D|-------------------------------------------------------------------------|
A|-0-00-5-0-00-5-0-00-5-0-00-7-p-5-0-00-5-0-00-5-0-00-3-0-00-3-0-00-3-1111-|
E|-------------------------------------------------------------------------|

Continued...
G|-------|
D|-------|
A|-11111-|
E|-------|

Riff G                                  | Fast Part|
G|-------------------------------------------------------------------------|
D|-------------------------------------------------------------------------|
A|-5-3-1--------------------------------5-5-5-5-5-5-h-12-12-12-h-15-15-p-3-|
E|-------3-5-6-8-6-5-10-8-p-3-3-3-3-3-3------------------------------------|

Continued...                            | Fast Part |
G|-------------------------------------------------------------------------|
D|-------------------------------------------------------------------------|
A|-3333--------------------------------5-5-5-5-5-5-h-12-12-12-h-15-15-p-33-|
E|------3-5-6-8-6-5-10-8-p-3-3-3-3-3-3-------------------------------------|

Continued...
G|------|
D|------|
A|-3333-|
E|------|

Riff H                                      Fast Part
G|----------------------|-------------------------------------------------|
D|----------------------|-------------------------------------------------|
A|----------------------|-5555555555555-666666666666-10-10-10-10-10-10-10-|
E|-10-11-15-18-17-18-17-|-------------------------------------------------|

Continued...
G|------------------------------------------------------------|
D|------------------------------------------------------------|
A|-10-10-12-12-12-12-12-12-12-12-12-555555555555-666666666666-|
E|------------------------------------------------------------|

Riff I
G|----------------------------|---------------------------------|
D|----------------------------|---------------------------------|
A|----------------0-10-11-6-6-|-0-00-5-0-00-5-0-00-5-0-00-7-p-5-|
E|-10-11-10-8-8-8-------------|---------------------------------|

Continued...
G|-----------------------------------------------------------------|
D|-----------------------------------------------------------------|
A|-0-00-5-0-00-5-0-00-5-0-00-8-p-5-0-00-5-0-00-5-0-00-5-0-00-7-p-5-|
E|-----------------------------------------------------------------|

Continued...
G|---------------------------------------------|
D|---------------------------------------------|
A|-0-00-5-0-00-5-0-00-3-0-00-3-0-00-3-11111111-|
E|---------------------------------------------|

Riff J
G|-------------------|--------------------------------------------------|
D|-------------------|--------------------------------------------------|
A|-5-555-3-333-1-111-|--------------------------------5-5-5-5-5-5-5-5-5-|
E|-------------------|-3-5-6-8-6-5-10-8-p-3-3-3-3-3-3-------------------|

Continued...
G|----------------------------------------|--------------------------------|
D|----------------------------------------|--------------------------------|
A|-5-h-12-12-12-h-15-15-15-15-33333333333-|--------------------------------|
E|----------------------------------------|-3-5-6-8-6-5-10-8-p-3-3-3-3-3-3-|

Continued...
G|-------------------------------------------------------|
D|-------------------------------------------------------|
A|-5-5-5-5-5-5-5-5-5-h-12-12-12-h-15-15-15-15-3333333333-|
E|-------------------------------------------------------|

Riff K
G|------------------|------------------------------------------------------|
D|------------------|------------------------------------------------------|
A|------------------|-5-p-3-h-7-p-1-0--------------------------------------|
E|-3-5-6-8-6-5-10-8-|-----------------10-0-10-0-10-0-10-0-10-0-10-0-10-0-10|

Continued...
G|-----------------------------------------------------|---------------|
D|-----------------------------------------------------|---------------|
A|-----------------------------------------------------|-0-00-5-0-00-5-|
E|-0-10-0-10-0-8-0-8-0-8-0-8-0-8--10-10-10-12-12-12-13-|---------------|

Continued...                     This is during Guitar Solo
G|----------------------------------------------------------------------|
D|----------------------------------------------------------------------|
A|-0-00-3-0-00-3-----------555555555-10-10-10-h-12-12-12-12-p-333333333-|
E|---------------333333333----------------------------------------------|

Continued...
G|-------------------------------------------------------------------------|
D|-------------------------------------------------------------------------|
A|-111111111------------555555555-p-10-10-10-p12-12-12-12h3333333-11111111-|
E|-----------3333333333----------------------------------------------------|

Riff L
G|-------------------------------------------------------------------------|
D|-------------------------------------------------------------------------|
A|------------------------------5-5-5-5-5-p-10-10-10-10-p-12-12-12-12-h-333|
E|-3-5-6-8-6-5-10-8-h-3-3-3-3-3--------------------------------------------|

Continued...
G|-------------------------------------------------------------------------|
D|-------------------------------------------------------------------------|
A|-333333----------------------------5-5-5-5-5-p-10-10-10-p-12-12-12-12-h-3|
E|--------3-5-6-8-6-5-10-8-h-3-3-3-3---------------------------------------|

Continued...
G|--------|
D|--------|
A|-333333-|
E|--------|

Finally the Ending
G|----------------------|-------------------------------------------------|
D|----------------------|-------------------------------------------------|
A|----------------------|-5555555555555-666666666666-10-10-10-10-10-10-10-|
E|-10-11-15-18-17-18-17-|-------------------------------------------------|

Continued...
G|------------------------------------------------------------|
D|------------------------------------------------------------|
A|-10-10-12-12-12-12-12-12-12-12-12-555555555555-666666666666-|
E|------------------------------------------------------------|

Okay it ends Here!!!!
G|------------------------|
D|------------------------|
A|-555555555-6666666666-5-|
E|------------------------|
                                 

============================================================================
                            
    |p pull-off                 Please RATE & COMMENT
    |h hammer-on    ! This took a long time                          

            
            
Suggest correction
Creating personal tab
Creating personal tab
You can edit any tab online and save it as your Personal.

You can edit, replace or remove any tab part or add personal notes – all changes will be seen only by you.

Personal tabs can be accessed anytime from any device, even offline.
Learn more »
Give kudos to tab author, rate the tab!
1 2 3 4 5
comments
print report bad tab
1 comment total.
0 reply
Satan Man 1,286 Feb 09, 2008 05:15 AM

Good attempt
Check the Score DVD for the proper way to play it
More complex than this

guest
You may want to rate the tab now too:
select rating
Wanna post a correction for this tab? Suggest correction