Oops, an error
Loading. Please wait.

As I Am Tab

version 2
100,370 views 108 this week
22 commentsread comments
1 2 3 4 5
x 38
add to favorites
launch autoscroll
font size
0
reset
how to read this tab
guitar tuner
Autoscroll
slow
fast
+/-
esc
set tempo
stop
Help us to improve Ultimate-Guitar.com Take our survey!
×
Author
AS I AM
As recorded by Dream Theater
(From the 2003 Album TRAIN OF THOUGHT)


Transcribed by Thenid

  

Gtr I (C F Bb Eb G C) - 'Untitled'
Gtr II (C F Bb Eb G C) - 'Untitled'
Gtr III (C F Bb Eb G C) - 'Untitled'


[Intro]
  Q=98
                            E5
 4/4
  Gtr I
  W          Wx8            H     Q.   E   +W      4x
e|----------|------------||---------------|---------||
B|----------|------------||o-------5----5-|-(5)----o||
G|----------|------------||--------4----3-|-(3)-----||
D|----------|------------||--2-----2----2-|-(2)-----||
A|----------|------------||o-2----(2)-----|--------o||
E|----------|------------||--0----(0)-----|---------||


   N.C.
                  ~~~
   H    E E E E   +W           H    E E E E   +H.      +E.    +S
e|--------------|------------|--------------|----------------------|
B|--------------|------------|--------------|----------------------|
G|--------------|------------|--------------|----------------------|
D|--------------|------------|--------------|----------------------|
A|------7---7---|------------|------7---7---|----------------------|
E|-0------0---6-|-(6)--------|-0------0---6-|-(6)------(6)b7==(6)r-|


                                           Q=130
                  ~~~
   H    E E E E   +W           H    E E E E   +H.      +E.    +S
e|--------------|------------|--------------|----------------------|
B|--------------|------------|--------------|----------------------|
G|--------------|------------|--------------|----------------------|
D|--------------|------------|--------------|----------------------|
A|------7---7---|------------|------7---7---|----------------------|
E|-0------0---6-|-(6)--------|-0------0---6-|-(6)------(6)b7==(6)r-|


     E5      N.C.                     G5
       PM--|   PM  ~~~~~~~~   ~~~~~~
     E E E E E E E E   +Q   E E +E  E Q   4x
e||------------------|--------------------||-|
B||o-----------------|-------------------o||-|
G||------------------|--------------------||-|
D||------------------|--------------------||-|
A||o-2-------7---7---|------7-------7-5--o||-|
E||--0-0-0-0---0---6-|-(6)----5-(5)---3---||-|


     E5      N.C.
       PM--------------|       PM--------------|
     E E E E S S S S S S E   E E E E S S S S S S E
e||------------------------|------------------------|
B||o-----------------------|------------------------|
G||------------------------|------------------------|
D||------------------------|------------------------|
A||o-2-------8-7-5-8-7-5-8-|-7-------8-7-5-8-7-5-7--|
E||--0-0-0-0---------------|---0-0-0----------------|


                           1.                      2.
                                   G5    F5                G5    Bb5
   PM----------------|       PM--------------|       PM------------|
   E E E E S S S S S S E   E E E E S S E S S E     E E E E S S E S S E
e|-----------------------|----------------------||---------------------|
B|-----------------------|---------------------o||---------------------|
G|-----------------------|----------------------||---------------------|
D|-----------------------|----------------------||---------------------|
A|---------8-7-5-8-7-5-8-|-7-----------5-----3-o||-7-----------5-----8-|
E|-0-0-0-0---------------|---0-0-0-3-3-3-1-1-1--||---0-0-0-3-3-3-6-6-6-|


[Verse]

     E5      N.C.              E5    N.C.            E5      N.C.
       PM--------------|       PM--------------|     PM----------------|
     E E E E S S S S S S E   E E E E S S S S S S E   E E E E S S S S S S E
e||------------------------|-----------------------|------------------------|
B||o-----------------------|-----------------------|------------------------|
G||------------------------|-----------------------|------------------------|
D||------------------------|-----------------------|------------------------|
A||o-2-2-2-2-8-7-5-8-7-5-8-|-7-2-2-2-8-7-5-8-7-5-7-|-2-2-2-2-8-7-5-8-7-5-8--|
E||--0-0-0-0---------------|---0-0-0---------------|-0-0-0-0----------------|


     E5    G5    F5      E5      N.C.              E5    N.C.
     PM|   PM--------|     PM--------------|       PM--------------|
   E E E E S S E S S E   E E E E S S S S S S E   E E E E S S S S S S E
e|---------------------|-----------------------|------------------------|
B|---------------------|-----------------------|------------------------|
G|---------------------|-----------------------|------------------------|
D|---------------------|-----------------------|------------------------|
A|-7-2-2-2-----5-----3-|-2-2-2-2-8-7-5-8-7-5-8-|-7-2-2-2-8-7-5-8-7-5-7--|
E|---0-0-0-3-3-3-1-1-1-|-0-0-0-0---------------|---0-0-0----------------|


[Pre-Chorus]
                                              $
   E5      N.C.              E5    G5    Bb5       N.C.(Bm)
                                                   Gtr II
   PM----------------|       PM|   PM------|
   E E E E S S S S S S E   E E E E S S E S S E     Q  H      Q
e|-----------------------|----------------------||---------------|
B|-----------------------|---------------------o||----0------0---|
G|-----------------------|----------------------||---------------|
D|-----------------------|----------------------||---------------|
A|-2-2-2-2-8-7-5-8-7-5-8-|-7-2-2-2-----5-----8-o||-2-------------|
E|-0-0-0-0---------------|---0-0-0-3-3-3-6-6-6--||-------3-----2-|
                                                  H     Q.    E


                                         3/4             4/4
   +E  Q.    +E  Q.      +Q   H      Q     +E  E +Q   Q    +Q   H      Q
e|---------------------|-----------------|---------------|------------------|
B|-(0)-0-----(0)-0-----|-(0)--0------0---|-(0)-0-(0)--0--|-(0)--0------0----|
G|---------------------|-----------------|---------------|------------------|
D|---------------------|-----------------|---------------|------------------|
A|---------0-(0)----3--|--2--------------|---------------|--2---------------|
E|-(2)-----------------|---------3-----2-|-(2)----0------|---------3-----2--|
  +Q.     E +Q     Q     H      Q.    E   +Q     H         H      Q.    E


  5/4                       4/4
                                                                Gtrs I, II
   +E  Q.    +E  E +Q   Q    +Q   H      Q     +E  E +Q   H      Q  H      Q
e|-------------------------|-----------------|-----------------|----------------|
B|-(0)-0-----(0)-0-(0)--0--|-(0)--0------0---|-(0)-0-(0)--0----|----0------0----|
G|-------------------------|-----------------|-----------------|----------------|
D|-------------------------|-----------------|-----------------|----------------|
A|---------0-(0)----3------|--2--------------|-----------------|-2--------------|
E|-(2)---------------------|---------3-----2-|-(2)----0--------|-------3-----2--|
  +Q.     E +Q     H         H      Q.    E   +Q     H.         H     Q.    E


                                          3/4             4/4
   +E  Q.     +E  Q.      +Q   H      Q     +E  E +Q   Q    +Q   H      Q
e|----------------------|-----------------|---------------|------------------|
B|-(0)-0------(0)-0-----|-(0)--0------0---|-(0)-0-(0)--0--|-(0)--0------0----|
G|----------------------|-----------------|---------------|------------------|
D|----------------------|-----------------|---------------|------------------|
A|----------0-(0)----3--|--2--------------|---------------|--2---------------|
E|-(2)----2-------------|---------3-----2-|-(2)----0------|---------3-----2--|
  +Q     E E +Q     Q     H      Q.    E   +Q     H         H      Q.    E


  5/4                        4/4               6/4
   +E  Q.     +E  E +Q   Q    +Q   H      Q     +E  Q.     +W
e|--------------------------|-----------------|-------------------|
B|-(0)-0------(0)-0-(0)--0--|-(0)--0------0---|-(0)-0------(0)----|
G|--------------------------|-----------------|-------------------|
D|--------------------------|-----------------|-------------------|
A|----------0-(0)----3------|--2--------------|-------------------|
E|-(2)----2-----------------|---------3-----2-|-(2)----2-1-(1)----|
  +Q     E E +Q     H         H      Q.    E   +Q     E E +W


[Chorus]

  $$
  E5         F#G5               F#5          F5        N.C.
 4/4              3/4          4/4
  Gtr I
           PM|                                               ~~~
  H    +E  E E E   +H     E E   H    +E  E E E   +E  E  E E  Q   E E
e|----------------|------------|----------------|---------------------|
B|----------------|------------|----------------|---------------------|
G|----------------|------------|----------------|---------------------|
D|-2----(2)-----5-|-(5)--------|-4----(4)-----3-|-(3)-----------------|
A|-2----(2)-2-4-5-|-(5)----2---|-4----(4)-2---3-|-(3)---/5-4-[3]--0-2-|
E|-0----(0)-0-2-3-|-(3)------3-|-2----(2)---2-1-|-(1)-1---------------|


   E5         F#G5               F#5          F5        C5
                   3/4          4/4
            PM|
   H    +E  E E E   +H     E E   H    +E  E E E   E E E E E E E E
e|----------------|------------|----------------|------------------|
B|----------------|------------|----------------|------------------|
G|----------------|------------|----------------|------------------|
D|-2----(2)-----5-|-(5)--------|-4----(4)-----3-|---3---5---5---5--|
A|-2----(2)-2-4-5-|-(5)----2---|-4----(4)-2---3-|---3---3---3---3--|
E|-0----(0)-0-2-3-|-(3)------3-|-2----(2)---2-1-|---1--------------|


   E5                 (G)                      (F#sus4)
   Q.   E +E   E   E  E   +Q   E E  E   E   E  E
e|----------------------|------------------------|
B|------0-(0)-(0)-(0)---|--------0-(0)-(0)-(0)---|
G|----------------------|------------------------|
D|-2--------------------|------------------------|
A|-2--------------------|---------------2--------|
E|-0-----------0---2--3-|-(3)--3----3-------3--2-|


                        (Fb5)     N.C.
                                        ~~~
   +Q   E E  E   E   E  E   +E  E  E E  Q   E E
e|------------------------|---------------------|
B|--------0-(0)-(0)-(0)---|---------------------|
G|------------------------|---------------------|
D|------------------------|---------------------|
A|---------------2--------|-------/5-4-[3]--0-2-|
E|-(2)--2----2-------2--1-|-(1)-1---------------|


   E5                 (G)                      (F#sus4)
   Q.   E +E   E   E  E   +Q   E E  E   E   E  E
e|----------------------|------------------------|
B|------0-(0)-(0)-(0)---|--------0-(0)-(0)-(0)---|
G|----------------------|------------------------|
D|-2--------------------|------------------------|
A|-2--------------------|---------------2--------|
E|-0-----------0---2--3-|-(3)--3----3-------3--2-|


                                 To Coda
                        F5        C5
                           3/4
   +Q   E E  E   E   E  E   E E E E E E
e|------------------------|--------------||
B|--------0-(0)-(0)-(0)---|--------------||
G|------------------------|--------------||
D|----------------------3-|---3---5---5--||
A|---------------2------3-|---3---3---3--||
E|-(2)--2----2-------2--1-|---1----------||


                                                              To Dbl. Coda
   E5     N.C.                     G5     E5      N.C.                     G5
  4/4
      PM|   PM  ~~~~~~~~   ~~~~~~           PM--|   PM  ~~~~~~~~   ~~~~~~
   Q  E E E E E E   +Q   E E +E  E Q      E E E E E E E E   +Q   E E +E  E Q   3x
e|----------------|-------------------||------------------|--------------------||
B|----------------|-------------------||o-----------------|-------------------o||
G|----------------|-------------------||------------------|--------------------||
D|-2--------------|-------------------||------------------|--------------------||
A|-2------7---7---|------7-------7-5--||o-2-------7---7---|------7-------7-5--o||
E|-0--0-0---0---6-|-(6)----5-(5)---3--||--0-0-0-0---0---6-|-(6)----5-(5)---3---||


[Verse]

     E5            N.C.              E5          N.C.
        PM-------------------|        PM-------------------|
     E  E   E   E  S S S S S S E   E  E   E   E  S S S S S S E
e||------------------------------|-----------------------------|
B||o-----------------------------|-----------------------------|
G||------------------------------|-----------------------------|
D||------------------------------|-----------------------------|
A||o-2-(2)-(2)-(2)-8-7-5-8-7-5-8-|-7-(2)-(2)-(2)-8-7-5-8-7-5-7-|
E||--0--0---0---0----------------|----0---0---0----------------|


   E5              N.C.
   PM-----------------------|
    E   E   E   E  S S S S S S E
e|--------------------------------|
B|--------------------------------|
G|--------------------------------|
D|--------------------------------|
A|-(2)-(2)-(2)-(2)-8-7-5-8-7-5-8--|
E|--0---0---0---0-----------------|


     E5          G5    F5      E5            N.C.
      PM-|       PM------|        PM-------------------|
   E  E   E   E  S S E S S E   E  E   E   E  S S S S S S E
e|---------------------------|-----------------------------|
B|---------------------------|-----------------------------|
G|---------------------------|-----------------------------|
D|---------------------------|-----------------------------|
A|-7-(2)-(2)-(2)-----5-----3-|-2-(2)-(2)-(2)-8-7-5-8-7-5-8-|
E|----0---0---0--3-3-3-1-1-1-|-0--0---0---0----------------|


     E5          N.C.
  7/8
      PM-------------------|
   E  E   E   E  S S S S S S
e|----------------------------|
B|----------------------------|
G|----------------------------|
D|----------------------------|
A|-7-(2)-(2)-(2)-8-7-5-8-7-5--|
E|----0---0---0---------------|


                                             D.S. al Coda
     E5          N.C.              E5          G5    Bb5
  4/4
      PM-------------------|        PM-|       PM------|
   E  E   E   E  S S S S S S E   E  E   E   E  S S E S S E
e|-----------------------------|----------------------------||
B|-----------------------------|---------------------------o||
G|-----------------------------|----------------------------||
D|-----------------------------|----------------------------||
A|-7-(2)-(2)-(2)-8-7-5-8-7-5-8-|-7-(2)-(2)-(2)-----5-----8-o||
E|----0---0---0----------------|----0---0---0--3-3-3-6-6-6--||


[Interlude]

   &
       E5        N.C.
  4/4
                ~~~~~~~~
       H..       E   +H.      E E
e|-||--------------|--------------|
B|-||o-------------|--------------|
G|-||--------------|--------------|
D|-||--2-----------|--------------|
A|-||o-2-----------|--------------|
E|-||--0---------6-|-(6)------0-1-|


                                      E5        N.C.
   ~~~~~~~~~      ~~~~~~~~~                     ~~~~~~~~
   H    +E   E E  E    +H.      E E   H..       E   +H.      E E
e|-------------------|--------------|-------------|--------------|
B|-------------------|--------------|-------------|--------------|
G|-------------------|--------------|-------------|--------------|
D|-------------------|--------------|-2-----------|--------------|
A|----------/5-4-[3]-|-(3)----------|-2-----------|--------------|
E|-2----(2)----------|----------2-3-|-0---------6-|-(6)------0-1-|


   1.                                       2.
                                                          C5
                                                             3/4
   ~~~~~~~~~     ~~~~~~~~          ~~~~~~~~~~~~~~~~~~
   H    +E   E E E   +Q.    E +E   Q.       H    +E   E E E   E E E E E E
e|-----------------|---------------------||-----------------|--------------|
B|-----------------|--------------------o||-----------------|--------------|
G|-----------------|---------------------||-----------------|--------------|
D|-----------------|---------------------||---------------5-|---5---5---5--|
A|----------/5-4-3-|-(3)---/6-(6)-------o||----------/5-4-3-|---3---3---3--|
E|-2----(2)--------|--------------[3]----||-2----(2)--------|--------------|


[Guitar Solo]

   N.C.
  4/4
   Gtr III
     ~~~
     H     Q   +E        S  +S        +E   E  E  +E      +E   E  E  E
e|---------------------------------|---------19-(19)b20r(19)-17----17-|
B|----------------------20-(20)b22r|=(20)-17--------------------20----|
G|--------17--(17)b17.5------------|----------------------------------|
D|-/19-----------------------------|----------------------------------|
A|---------------------------------|----------------------------------|
E|---------------------------------|----------------------------------|


                           ~~~~~~~~
            |--3--|                 |--3--|  |------6-------|
    +E      S  S  S  S     E.  +E   S  S  S  S  S  S  S  S  S
e|-(17)b18-17-------20b22-20--(20)-17-19-17-------20-17-------|
B|------------20-17-------------------------20-17-------20-17-|
G|------------------------------------------------------------|
D|------------------------------------------------------------|
A|------------------------------------------------------------|
E|------------------------------------------------------------|

 
                                                  ~~~~
    |------6-------|  |------6-------|  |--3--|
    S  S  S  S  S  S  S  S  S  S  S  S  S  S  S  +Q.
e|-22-17-------20-17-------19-17-----------------------|
B|-------20-17-------20-17-------20-17-----------------|
G|-------------------------------------19-17-----------|
D|-------------------------------------------19-(19)---|
A|-----------------------------------------------------|
E|-----------------------------------------------------|


    |------6-------|  |------6-------|  |------6-------|  |------6-------|
    S  S  S  S  S  S  S  S  S  S  S  S  S  S  S  S  S  S  S  S  S  S  S  S
e|--------------------------------------------------------------------------|
B|--------------------------------------------------------------------------|
G|-------------------------------------19-18-17-----------------------------|
D|----------------------------19-18-17----------19-18-17----------19-18-17--|
A|----------17-16-15-19-18-17----------------------------19-18-17-----------|
E|-17-16-15-----------------------------------------------------------------|


    |------6-------|  |------6-------|  |------6-------|  |------6-------|
    S  S  S  S  S  S  S  S  S  S  S  S  S  S  S  S  S  S  S  S  S  S  S  S
e|----------------------------------------------------------------22-21-20-|
B|-------------------22-21-20----------------------------22-21-20----------|
G|----------21-20-19----------21-20-19----------21-20-19-------------------|
D|-21-20-19----------------------------21-20-19----------------------------|
A|-------------------------------------------------------------------------|
E|-------------------------------------------------------------------------|


    |------6-------|  |------6-------|  |---------------13:8----------------|
    S  S  S  S  S  S  S  S  S  S  S  S  S  S  S  S  S  S  S  S  S  S  S  S  S
e|-23-22-20-23-22-20-23-22-20-23-22-20-23-22-20-23-22-20-21-19-17----------20-|
B|----------------------------------------------------------------20-19-17----|
G|----------------------------------------------------------------------------|
D|----------------------------------------------------------------------------|
A|----------------------------------------------------------------------------|
E|----------------------------------------------------------------------------|


    |---------------13:8----------------|  |---------------13:8----------------|
    S  S  S  S  S  S  S  S  S  S  S  S  S  S  S  S  S  S  S  S  S  S  S  S  S  S
e|-19-17----------20-19-17----------20-19-17-------------------------------------|
B|-------20-19-17----------20-19-17----------20-19-17-20-19-17-------------------|
G|-------------------------------------------------------------20-19-17-20-17----|
D|----------------------------------------------------------------------------19-|
A|-------------------------------------------------------------------------------|
E|-------------------------------------------------------------------------------|


    ~~~                                 ~~~~
                             |----3-----|
    Q.    +E     S  S  S  S  E  E      +E
e|------------------------------------------|
B|------------------------------------------|
G|-17----(17)\-----------17-19-21b24==(21)--|
D|-----------------17-19--------------------|
A|-------------/19--------------------------|
E|------------------------------------------|


     ~~~~~~
                                    |-----3-----|
    +E      E  S  S  S  S  Q       +E   a  +E   E
e|------------------20-22-24b27===(24)-24r(24)-23-|
B|------------20-22-------------------------------|
G|-(21)r\-/21-------------------------------------|
D|------------------------------------------------|
A|------------------------------------------------|
E|------------------------------------------------|


             ~~                                        T     T
    |--3--|                                         |-----5-----|
    E  E  E  Q   +S   T  T  T  T  T  T  T  T  T  T  T  T  T  T  T
e|-22-20-22---------------------------------------------------------|
B|----------22--(22)----------15-15-------------15h17-20p17-20p17p==|
G|-------------------------17-------17-------17---------------------|
D|-------------------19-19-------------19-19------------------------|
A|------------------------------------------------------------------|
E|------------------------------------------------------------------|


                                           T                     ~~
                                        |-----5-----|
    S  S  S  T  T  S  T  T  T  T  T  T  T  T  T  T  T  T  T  S   Q
e|------------------------------------------------------------------|
B|-15-------------15-------------15h17h20-23p20p17p15---------------|
G|----17-------17----17-------17----------------------17------------|
D|-------19-19----------19-19----------------------------19---------|
A|----------------------------------------------------------19\-----|
E|--------------------------------------------------------------15--|


    |------6-------|  |------6-------|  |------6-------|  |------6-------|
    S  S  S  S  S  S  S  S  S  S  S  S  S  S  S  S  S  S  S  S  S  S  S  S
e|-------------------------------------------------------------------------|
B|-------------------------------------------------------------------------|
G|-------------------------------------------------------------------------|
D|----------------------------------------14-14-16-16-14----14-16-16-14-16-|
A|----14-14-15-17-15----14-15-17-14-14-17----------------17----------------|
E|-17----------------17----------------------------------------------------|


    |------6-------|  |------6-------|  |--------7--------|  |--------7--------|
    S  S  S  S  S  S  S  S  S  S  S  S  S  S  S  S  S  S  S  S  S  S  S  S  S  S
e|-------------------------------------------------------------------------14-14-|
B|----------------------------------------14-15-17-15-14-------15-15-14-17-------|
G|----14-16-17-16-14----14-16-16-14-16-17----------------17-17-------------------|
D|-17----------------17----------------------------------------------------------|
A|-------------------------------------------------------------------------------|
E|-------------------------------------------------------------------------------|


    |--------7--------|  |--------7--------|  |--------7--------|  |------6-------|
    S  S  S  S  S  S  S  S  S  S  S  S  S  S  S  S  S  S  S  S  S  S  S  S  S  S  S
e|-15-17-15-14----14-15-17-15-14-17-19-17-15----15-17-19-17-15-19-22-19-17-19-22-17-|
B|-------------17----------------------------19-------------------------------------|
G|----------------------------------------------------------------------------------|
D|----------------------------------------------------------------------------------|
A|----------------------------------------------------------------------------------|
E|----------------------------------------------------------------------------------|


    |------6-------|  |------6-------|  |---------------13:8----------------|
    S  S  S  S  S  S  S  S  S  S  S  S  S  S  S  S  S  S  S  S  S  S  S  S  S
e|-19-22-19-17-19-22-19-17-19-22-19-17-19-23-19-17-19-23-19-17-19-23-19-17-19-|
B|----------------------------------------------------------------------------|
G|----------------------------------------------------------------------------|
D|----------------------------------------------------------------------------|
A|----------------------------------------------------------------------------|
E|----------------------------------------------------------------------------|


    |------6-------|  |------6-------|  |------6-------|  |------6-------|
    S  S  S  S  S  S  S  S  S  S  S  S  S  S  S  S  S  S  S  S  S  S  S  S
e|-24-19-17-19-24-19-17-19-24-19-17-19-24-19-17-19-24-19-17-19-24-19-17-19-|
B|-------------------------------------------------------------------------|
G|-------------------------------------------------------------------------|
D|-------------------------------------------------------------------------|
A|-------------------------------------------------------------------------|
E|-------------------------------------------------------------------------|


    |------6-------|  |------6-------|  |------6-------|  |------6-------|
    S  S  S  S  S  S  S  S  S  S  S  S  S  S  S  S  S  S  S  S  S  S  S  S
e|-22-19-18-19-22-19-18-19-22-19-18-19-22-19-18-19-22-19-18-19-22-19-17S16S|
B|-------------------------------------------------------------------------|
G|-------------------------------------------------------------------------|
D|-------------------------------------------------------------------------|
A|-------------------------------------------------------------------------|
E|-------------------------------------------------------------------------|


    |---------------13:8----------------|  |--------7--------|  |---------7---------|
    S  S  S  S  S  S  S  S  S  S  S  S  S  S  S  S  S  S  S  S  S  S  S   S  S  S   S
e|-15----15-16-19-16-15----15-16-19-16-15----15-16-19-16-15----16-19-16\-14-14-15-\12---|
B|----17----------------17----------------17----------------17--------------------------|
G|--------------------------------------------------------------------------------------|
D|--------------------------------------------------------------------------------------|
A|--------------------------------------------------------------------------------------|
E|--------------------------------------------------------------------------------------|


    |--------7--------|  |--------7--------|  |--------7--------|  |--------7---------|
    S  S  S  S  S  S  S  S  S  S  S  S  S  S  S  S  S  S  S  S  S  S  S  S  S  S  S  +S
e|----12-14-15-14-12----12-14-15-12-----------------------------------------------------------|
B|-15----------------15-------------15-15-13----12-14-15-14-12----14-15-14-12-----------------|
G|-------------------------------------------15----------------12-------------15-12-(12)b12.5-|
D|--------------------------------------------------------------------------------------------|
A|--------------------------------------------------------------------------------------------|
E|--------------------------------------------------------------------------------------------|

    ~~~~~~~~
    Q   +E.   S   S     +S   S  S  S  S  S  S
e|--------------------------------------------|
B|---------------14b15-(14)-14p12-------------|
G|----------(12)-14b15-(14)-14p12-14p12-------|
D|-14--(14)-(12)------------------------14-12-|
A|--------------------------------------------|
E|--------------------------------------------|


                                                      ~~
                           |--3--|  |------6-------|
    S     +S   S  S  E     S  S  S  S  S  S  S  S  S  Q
e|------------12----------12-------17-15-----------------|
B|---------------12-15b17----15p12-------17-15-----------|
G|-14b16-(14)----------------------------------17-16-15--|
D|-------------------------------------------------------|
A|-------------------------------------------------------|
E|-------------------------------------------------------|


    |------6-------|  |------6-------|  |------6-------|  |------6-------|
    S  S  S  S  S  S  S  S  S  S  S  S  S  S  S  S  S  S  S  S  S  S  S  S
e|-15p14p12----12-14-15p14p12-17p15p14----14-15-17p15p14-19p17p15----15-17-|
B|----------15-------------------------17-------------------------19-------|
G|-------------------------------------------------------------------------|
D|-------------------------------------------------------------------------|
A|-------------------------------------------------------------------------|
E|-------------------------------------------------------------------------|


   Gtr III
    |------6-------|  |------6-------|  |------6-------|  |------6-------|
    S  S  S  S  S  S  S  S  S  S  S  S  S  S  S  S  S  S  S  S  S  S  S  S
e|-19p17p15-20p19p17----17-19-20p19p17-22p20p19----19-20-22p20p19----19-20-|
B|-------------------20-------------------------22----------------22-------|
G|-------------------------------------------------------------------------|
D|-------------------------------------------------------------------------|
A|-------------------------------------------------------------------------|
E|-------------------------------------------------------------------------|
 |
 | Gtr I
 |  W
e|-------------------------------------------------------------------------|
B|-------------------------------------------------------------------------|
G|-------------------------------------------------------------------------|
D|-------------------------------------------------------------------------|
A|-------------------------------------------------------------------------|
E|-------------------------------------------------------------------------|


   E5                     G6
  7/4
               ~~~~
    H         +Q    +Q       H.
e|-22b24=====(22)--(22)r\----------|
B|---------------------------------|
G|---------------------------------|
D|---------------------------------|
A|---------------------------------|
E|---------------------------------|
 |
 |  H..                   E +H.
e|------------------------0-(0)----|
B|--5---------------------0-(0)----|
G|--4---------------------4-(4)----|
D|--2---------------------5-(5)----|
A|--2---------------------5-(5)----|
E|--0---------------------3-(3)----|


                                                        D.S.S. al Dbl. Coda
   F#11      Fmaj7+11     Esus2/B   Gsus2/D        F#sus2/C#  Fsus2/C   Csus2
   Gtr I
   H..       E +H.        H..        E  +H.         H..        E E  E E E E E
e|-0---------0-(0)------|-7---------10-(10)------|--9----------8----8---3---3-||
B|-0---------0-(0)------|-7---------10-(10)------|--9----------8----8---3---3-||
G|-3---------2-(2)------|-9---------12-(12)------|-11---------10---10---5---5-||
D|-4---------3-(3)------|-9---------12-(12)------|-11---------10---10---5---5-||
A|-4---------3-(3)------|-7---------10-(10)------|--9----------8----8---3---3-||
E|-2---------1-(1)------|-7---------10-(10)------|--9----------8----8---------||


     &&
     E5            N.C.               G5     E5
    4/4
       PM--|   PM  ~~~~~~~~   ~~~~~~
     E E E E E E E E   +Q   E E +E  E Q   4x W
e||------------------|--------------------||-0----*|
B||o-----------------|-------------------o||-0----*|
G||------------------|--------------------||-x----*|
D||------------------|--------------------||-2----*|
A||o-2-------7---7---|------7-------7-5--o||-2----*|
E||--0-0-0-0---0---6-|-(6)----5-(5)---3---||-0----*|


************************************

| x    Dead note
| (n)  Ghost note
| h    Hammer-on
| p    Pull-off
| r    Release
| b    Bend
| /    Slide up
| \    Slide down
| PM   palm mute

************************************
Suggest correction
comments
print report bad tab
22 comments total. Showing first comments.
0 reply
shaketherim 20 Aug 04, 2004 12:00 AM

Tabs don't get much better than this! You've practically got it perfectly...well done.

0 reply
atc228 50 Oct 10, 2004 12:00 AM

perfect solo

0 reply
metal-syrus 10 Jan 09, 2005 12:00 AM

Noce one man, of only every tabber was this accurate

guest
You may want to rate the tab now too:
select rating
Wanna post a correction for this tab? Suggest correction