Oops, an error
Loading. Please wait.

Beneath The Surface solo tab

version 1
version 1

Solo

Whole song

3,068 views 9 this week
2 commentsread comments
1 2 3 4 5
x 4
add to favorites
×
Save as Personal and add changes to this tab that will be seen only by you. Learn more ›
×
You can save this tab as Personal to edit and correct it or add notes. All changes will be seen only by you. Learn more »
launch autoscroll
font size
0
reset
how to read this tab
guitar tuner
edit
Autoscroll
slow
fast
+/-
esc
set tempo
stop
Author
This is just the keyboard solo arranged for guitar.
Tricky sometimes.


e|------------------------9-7-5-7-9-7---5-4p2p0---16-14-------------|
B|------------------------------------------------------------------|
G|--8-------8--8--9-8-6----------------------------------9-8-9-11---|
D|-----6--9-------------------------------------------------------9-|
A|------------------------------------------------------------------|
E|------------------------------------------------------------------|

---------------------------------------------------|
---------------------------------------------------|
----------8---13--(13)1416--14--13h14p13s11h13p119-|
------9-6---9--------------------------------------|
---6-----------------------------------------------|
4--------------------------------------------------|


|--12-11-12-14s16-------17-16-17------------------------|
|-----------------12-------------17---------------------|
|-----------------------------------16-14-16-13---------|
|-----------------------------------------------14-16---|
|-------------------------------------------------------|
|-------------------------------------------------------|


 |--------------|
E|-11p9p7-------|

            
            
Suggest correction
Creating personal tab
Creating personal tab
You can edit any tab online and save it as your Personal.

You can edit, replace or remove any tab part or add personal notes – all changes will be seen only by you.

Personal tabs can be accessed anytime from any device, even offline.
Learn more »
comments
print report bad tab
2 comments total.
+1 reply
xxDROXxx 10 Oct 29, 2011 05:04 PM

---------------------------------------------------|
---------------------------------------------------|
----------8---13--(13)1416--14--13h14p13s11h13p119-|
------9-6---9--------------------------------------|
---6-----------------------------------------------|
4--------------------------------------------------|

On This part, Try this.
----------------------------------------------|
--------------9-9h10-12-10-9h10p9-7h9p7-5----------|
----------8----------------------------------------|
------9-6---9--------------------------------------|
---6-----------------------------------------------|
4--------------------------------------------------|

+1 reply
JerseyDevil11 10 Nov 04, 2011 03:52 PM

Thanks it's great!!!

guest
You may want to rate the tab now too:
select rating
Wanna post a correction for this tab? Suggest correction