Oops, an error
Loading. Please wait.

Beyond This Life drums

version 1
version 1

Whole song

Interactive

849 views 1 this week
no commentswrite comment
1 2 3 4 5
3 more votes to show rating
add to favorites
×
Save as Personal and add changes to this tab that will be seen only by you. Learn more ›
×
You can save this tab as Personal to edit and correct it or add notes. All changes will be seen only by you. Learn more »
launch autoscroll
font size
0
reset
guitar tuner
backing track
0:00
0:00
edit
Autoscroll
slow
fast
+/-
esc
set tempo
stop
Author

Album: Metropolis Pt. 2: Scenes from a Memory
Drummer: Mike Portnoy
Tempo at beginning: About 190 BMP.
Key:
P   |t  = drum set tambourine (P for percussion)
H   |x  = closed hi-hat
H   |s  = partially open hi-hat
H   |X  = open hi-hat
R   |x  = ride
R   |b  = bell of ride
C   |x  = crash strike
C   |s  = splash cymbal
C   |c  = china cymbal
C   |1  = Max Stax Number 1
C   |2  = Max Stax Number 2
C   |X  = two crash cymbals simultaneously.
t   |o  = high octoban (Note: there are about 8 octobans being used, but the pitch is very similar between
them, so I am narrowing them down to two.)
t2  |o  = low octoban (Note: the lowest octoban is higher in pitch than Tom 1.)
T   |o  = Tom 1
T   |x  = Play on rim of tom
T2  |o  = Tom 2
S   |o  = snare drum
S   |d  = double bounce (any drum)
T3  |o  = Tom 3
T4  |o  = Tom 4
F   |o  = Floor tom 1
F2  |o  = Floor tom 2 (gong bass)
B   |o  = Bass drum 1
B   |d  = two consecutive 32nd notes (use both BD's)
B2  |o  = Bass drum 2
Hf  |x  = Hi-hat w/ foot

BEGINNING   5/4
    |------Play 3x-------|
T4  |--------------------|----------------o---|
F   |--------------------|----------------o---|
B   |--------------------|----------------o---|
    (1 + 2 + 3 + 4 + 5 + |1 + 2 + 3 + 4 + 5 + )

0:06
C   |X-------------------|--------------------|
H   |----X---X---X---X---|X---X---X---X---X---|
S   |----o---o---o---o---|o---o---o---o---o---|
B   |o-------------o---o-|------o---o---o---o-|
    (1 + 2 + 3 + 4 + 5 + |1 + 2 + 3 + 4 + 5 + )
0:10
C   |--------------------|x-------------------|
H   |X---X---X---X---X---|----X---X---X---X---|
S   |o---o---o---o---o---|o---o---o---o---o---|
B   |----------o---o---o-|------o---o---o---o-|
B2  |--------------------|-------------------o|
    (1 + 2 + 3 + 4 + 5 + |1 + 2 + 3 + 4 + 5 + )
0:13
C   |x-------------------|x-------------------|
H   |----X---X---X---X---|----X---X---X---X---|
S   |o---o---o---o---o---|o---o---o---o---o---|
B   |------o---o---o---o-|------o---o---o---o-|
B2  |---------------o----|-------------------o|
    (1 + 2 + 3 + 4 + 5 + |1 + 2 + 3 + 4 + 5 + )
0:17
C   |x-------------------|x-----x-----x---x---|
H   |----X---X---X---X---|--------------------|
S   |o---o---o---o---o---|o-----o-----o---o-o-|
B   |------o---o---o---o-|--o-o---o-o---o-----|
B2  |-------------------o|--------------------|
    (1 + 2 + 3 + 4 + 5 + |1 + 2 + 3 + 4 + 5 + )
                                    ______________________________
0:20||:        15/8                |1.                          :||
C   |x-----------------------x-----|x-----------------------s-----|
H   |----x---x---x---x---x-----X---|----x---x---x---x---x-----X---|
S   |----o-------o-------o-------o-|----o-------o-------o-------o-|
B   |o-------o-o-----o-o-----o-----|o-------o-o-----o-o-----o-----|
Hf  |----------------------------x-|----------------------------x-|
    (1+2+3+4+5+6+7+8+9+0+1+2+3+4+5+|1+2+3+4+5+6+7+8+9+0+1+2+3+4+5+)
     ____________________
    |2.      5/4    ---> |
C   |x-------------------|--------------------|
H   |----x---x---x---x---|x---x---x---X-------|
T3  |--------------------|----------------F---|
S   |----o-------o-------|o-------o-----------|
B   |o-------o-o-----o-o-|----o-o-----o-o-----|
Hf  |--------------------|----------------x---|
    (1 + 2 + 3 + 4 + 5 + |1 + 2 + 3 + 4 + 5 + )

0:32                     |-------Play 3x------|
C   |x-------------------|--------------------|
H   |----X---X---X---X---|X---X---X---X---X---|
S   |o---o---o---o---o---|o---o---o---o---o---|
B   |o-o-o-o-o-o-o-o-o-o-|o-o-o-o-o-o-o-o-o-o-|
B2  |-o-o-o-o-o-o-o-o-o-o|-o-o-o-o-o-o-o-o-o-o|
    (1 + 2 + 3 + 4 + 5 + |1 + 2 + 3 + 4 + 5 + )
                          ____________________ ____________________
0:38||:                  |1.                :||2.              --->|
C   |x-------------------|x-------------------|x-----x-----x---x---|
H   |----X---X---X---X---|----X---X---X---X---|--------------------|
S   |o---o---o---o---o---|o---o---o---o---o---|o-----o-----o---o---|
B   |o-o-o-o-o-o-o-o-o-o-|o-o-o-o-o-o-o-o-o-o-|--o-o---o-o---o-----|
B2  |-o-o-o-o-o-o-o-o-o-o|-o-o-o-o-o-o-o-o-o-o|--------------------|
    (1 + 2 + 3 + 4 + 5 + |1 + 2 + 3 + 4 + 5 + |1 + 2 + 3 + 4 + 5 + )

VERSE 1
0:46|-------Play 8x------|
H   |xxxxx---x-x-xxxxx-X-|
t2  |------o-------------|
B   |o-------------------|
Hf  |x-------------------|
    (1 + 2 + 3 + 4 + 5 + )
0:59                     |-------Play 4x------|
C   |s-----------s-------|x-----------s-------|x-----------s-------|
H   |-xxxx---x-x--xxxx---|-xxxx---x-x--xxxx---|-xxxx---x-x--xxxx---|
S   |------o-----------o-|------o-----------o-|------o-----------o-|
B   |o-----------o-------|o-----------o-------|o---o-------o---o---|
Hf  |x-------------------|--------------------|--------------------|
    (1 + 2 + 3 + 4 + 5 + |1 + 2 + 3 + 4 + 5 + |1 + 2 + 3 + 4 + 5 + )
1:09
C   |x-----------s-------|x-----x-----x---x---|
H   |-xxxx---x-x--xxxx---|--------------------|
S   |------o-------------|o-----o-----o---o---|
B   |o---o-------o---o-o-|--o-o---o-o---o---o-|
    (1 + 2 + 3 + 4 + 5 + |1 + 2 + 3 + 4 + 5 + )

1:13
C   |x-------------------|c-------------------|
R   |----x---x---x---x---|----x---x---x-------|
S   |o---o---o---o---o---|o---o---o---o-------|
T4  |--------------------|----------------F---|
B   |--o---o---o---o---o-|--o---o---o---o---o-|
    (1 + 2 + 3 + 4 + 5 + |1 + 2 + 3 + 4 + 5 + )

1:16
C   |x-------------------|----------------x---|
H   |----X---X---X---X---|X---X---X---X-------|
S   |----o-----------o---|----o-----------o---|
B   |o-----o---o-o-------|o-----o---o-o-------|
    (1 + 2 + 3 + 4 + 5 + |1 + 2 + 3 + 4 + 5 + )

1:19                     |-------Play 2x------|
C   |x-------------------|x-------------------|
R   |----x---x---x---x---|----x---x---x---x---|
S   |o---o---o---o---o---|o---o---o---o---o---|
B   |--o---o---o---o---o-|--o---o---o---o---o-|
B2  |-------------------o|-------------------o|
    (1 + 2 + 3 + 4 + 5 + |1 + 2 + 3 + 4 + 5 + )
BRIDGE
1:24                                   15/8
C   |x-------------------|x---x-x-----------------------|
R   |----x---x---x---x---|------------------------------|
H   |--------------------|----------s---s---s---s---s---|
S   |o---o---o---o---o---|o---o-o-------o-------o-------|
B   |--o---o---o---o---o-|--o-------o-o-----o-o-----o-o-|
    (1 + 2 + 3 + 4 + 5 + |1+2+3+4+5+6+7+8+9+0+1+2+3+4+5+)
1:28
C   |2---x-x-----------------------|x---x-x-----------------------|
H   |----------s---s---s---s---s---|--X-------s---s---s---s---s---|
S   |o---o-o-------o-------o-------|o---o-o-------o-------o-------|
B   |--o-------o-o-----o-o-----o-o-|--o-------o-o-----o-o-----o-o-|
Hf  |------------------------------|----x-------------------------|
    (1+2+3+4+5+6+7+8+9+0+1+2+3+4+5+|1+2+3+4+5+6+7+8+9+0+1+2+3+4+5+)
1:33                   10/4
C   |1---------------------------------------|
H   |----s---s---s---s---s---s---s---X-------|
T4  |------------------------------------F---|
S   |----o-------o-------o-------o-----------|
B   |o-o-----o-o-----o-o-----o-o-----o-o-----|
Hf  |------------------------------------x---|
    (1 + 2 + 3 + 4 + 5 + 6 + 7 + 8 + 9 + 0 + )

VERSE 2      5/4
1:38|------Play 4x-------|-------Play 4x------|
P   |t---t---t---t---t---|t---t---t---t---t---|
C   |--------------------|------b---2---------|
S   |----o-----------o---|----o-----------o---|
B   |o-o---o-----o-o-----|o-o---------o-o-----|
B2  |-o-o---------o-o----|-o-o---------o-o----|
    (1 + 2 + 3 + 4 + 5 + |1 + 2 + 3 + 4 + 5 + )

1:51
C   |1---1---1---1---1---|1---1---1---1---1---|
R   |--------------------|--------------------|
S   |----o-------o---o---|----o-------o-------|
B   |o-o---o---o---------|o-o---o---o-----o-o-|
B2  |-o-o----------------|-o-o-------------o-o|
    (1 + 2 + 3 + 4 + 5 + |1 + 2 + 3 + 4 + 5 + )

1:54
C   |1---1---1---1---1---|1---1---1---1-b-1---|
R   |--------------------|------------------b-|
S   |----o-------o---o---|----o-------o-------|
B   |o-----o---o---------|o-o---o---o---------|
B2  |--------------------|-o-o----------------|
    (1 + 2 + 3 + 4 + 5 + |1 + 2 + 3 + 4 + 5 + )

1:58|-------Play 3x------|
C   |c---1---1---1-b-1---|x-----x-----x-------|
R   |------------------b-|--------------------|
T3  |--------------------|----------------F---|
S   |----o-------o-------|o-----o-----o-------|
B   |o-o---o---o---------|--o-o---o-o---o---o-|
B2  |-o-o----------------|--------------------|
    (1 + 2 + 3 + 4 + 5 + |1 + 2 + 3 + 4 + 5 + )

2:05
C   |x-------------------|x-------------------|
R   |----x---x---x---x---|----x---x---x-------|
T3  |--------------------|----------------o---|
S   |o---o---o---o---o---|o---o---o---o---o---|
B   |--o---o---o---o---o-|--o---o---o---o---o-|
    (1 + 2 + 3 + 4 + 5 + |1 + 2 + 3 + 4 + 5 + )

2:07
C   |X-------------------|----------------x---|
H   |----X---X---X---X---|X---X---X---X-------|
S   |----o-----------o---|----o-----------o---|
B   |o-----o---o-o-------|o-----o---o-o-------|
    (1 + 2 + 3 + 4 + 5 + |1 + 2 + 3 + 4 + 5 + )

2:11|-------Play 3x------|           6/4
C   |x-------------------|x-----x-----x-----------|
R   |----x---x---x---x---|----------------x-x-x---|
S   |o---o---o---o---o---|o-----o-----o---o-o-o---|
B   |--o---o---o---o---o-|--o-o---o-o---o-------g-|
B2  |-------------------o|------------------------|
    (1 + 2 + 3 + 4 + 5 + |1 + 2 + 3 + 4 + 5 + 6 + )

              5/4
2:19-------Play 2x------|           6/4
C  |x-------------------|x-----------x-----------|x-----------x-------x---
R  |----x---x---x---x---|----x---x-------x---x---|----x---x-------x-------
S  |o---o---o---o---o---|o-----o-----o-----o-----|o-----o-----o-----o-----
B  |--o---o---o---o---o-|--o-----o-o---o-----o-o-|--o-----o-o---o---------
B2 |-------------------o|------------------------|------------------------
   (1 + 2 + 3 + 4 + 5 + |1 + 2 + 3 + 4 + 5 + 6 + |1 + 2 + 3 + 4 + 5 + 6 + 

2:26
At this point, LaBrie is playing the shaker or it was overdubbed.  On the
DVD "Scenes from New York," Mike Portnoy plays it this way:
R   |x---x---x---x---x---x---|
    (1 + 2 + 3 + 4 + 5 + 6 + )
with rolls on the temple blocks with his left hand.  I will just
transcribed what is on the CD.
CHORUS                        2:59     5/4
2:26|--------Play 16x--------|-------Play 7x------|
C   |------------------------|--------------------|x-----x-----x-------|
T3  |------------------------|--------------------|----------------o---|
S   |------------------------|--------------------|o-----o-----o---o---|
B   |------------------------|--------------------|--o-o---o-o---o---o-|
    (1 + 2 + 3 + 4 + 5 + 6 + |1 + 2 + 3 + 4 + 5 + |1 + 2 + 3 + 4 + 5 + )
CRAZY GUITAR SOLO
3:12
C   |x-------------------|x-------------------|
R   |----x---x---x---x---|----x---x---x---x---|
S   |o---o---o---o---o---|o---o---o---o---o---|
B   |------o---o---o---o-|----------o---o---o-|
B2  |--------------------|-------------------o|
    (1 + 2 + 3 + 4 + 5 + |1 + 2 + 3 + 4 + 5 + )
3:16
C   |x-------------------|x-------------------|
R   |----x---x---x---x---|----x---x---x---x---|
S   |o---o---o---o---o---|o---o---o---o---o---|
B   |----------o---o---o-|--o---o---o---o---o-|
B2  |--------------------|-------------------o|
    (1 + 2 + 3 + 4 + 5 + |1 + 2 + 3 + 4 + 5 + )
3:20
C   |x-------------------|x-------------------|
R   |----x---x---x---x---|----x---x---x---x---|
S   |o---o---o---o---o---|o---o---o---o---o---|
B   |------o---o---o---o-|------o---o---o---o-|
B2  |-------------------o|-------------------o|
    (1 + 2 + 3 + 4 + 5 + |1 + 2 + 3 + 4 + 5 + )
3:22
C   |x-------------------|x-----x-----x-------|
R   |----x---x---x---x---|--------------------|
T3  |--------------------|----------------F---|
S   |o---o---o---o---o---|o-----o-----o-------|
B   |------o---o---o---o-|--o-o---o-o---o---o-|
B2  |--------------------|--------------------|
    (1 + 2 + 3 + 4 + 5 + |1 + 2 + 3 + 4 + 5 + )
VERSE 3
      4/4 (half-time)
3:26|------------------------------Play 2x------------------------------|
C   |x-------22222222|x---------------|x-------22222222|x-------x--x--x-|
H   |--g-X-g---------|--g-X-g-X-g-X-g-|--g-X-g---------|--g-X-g---------|
S   |----o---o---o---|o---o---o---o---|o---o---o---o---|o---o---o--o--o-|
B   |o-o-o-o-o-o-o-o-|o-o-o-o-o-o-o-o-|o-o-o-o-o-o-o-o-|o-o-o--d--o--o--|
B2  |-o-o-o-o-o-o-o-o|-o-o-o-o-o-o-o-o|-o-o-o-o-o-o-o-o|-o-o------------|
    (1 + 2 + 3 + 4 + |1 + 2 + 3 + 4 + |1 + 2 + 3 + 4 + |1 + 2 + 3 + 4 + )

3:45           6/4                   4/4
>   |>--->--->--->--->--->->>|----------------|----------------|
C   |x-----------x-------x---|x---x---x---x---|x---x---x---x---|
R   |--x-x-x-x-x---x-x-x-----|----------------|----------------|
H   |------------------------|----------------|----------------|
S   |----o---o---o---o---o-oo|----o--o----o--o|----o--o----o-oo|
B   |o-o-o-o-o-o-o-o-o-o-o-o-|o-o-----o-o-----|o-o-----o-o--o--|
B2  |-o-o-o-o-o-o-o-o-o-o-o-o|---o-------o----|---o-------o----|
    (1 + 2 + 3 + 4 + 5 + 6 + |1 + 2 + 3 + 4 + |1 + 2 + 3 + 4 + )

3:53           6/4
C   |x-----------x-----------|
R   |--x-x-x-x-x---x-x-x-x-x-|
S   |----o---o---o---o---o---|
B   |o-o-o-o-o-o-o-o-o-o-o-o-|
B2  |-o-o-o-o-o-o-o-o-o-o-o-o|
    (1 + 2 + 3 + 4 + 5 + 6 + )
3:57                     7/4 (extended)
C   |x-----x-----x-----x-------------------------------------|
R   |----x---x-------x---x-----------------------------------|
T2  |--------------------------o-o-o-------------------------|
T3  |--------------------------------o-o---------------------|
T4  |------------------------------------o-o-----------------|
S   |o-----o-----o-----o-----F---------------O-OOO-O-O-O-O-O-|
B   |o---o---o---o---o---o-----------------------------------|
B2  |--o---o---o---o---o---o---------------------------------|
    (1   +   2   +   3   +   4   +   5   +   6   +   7   +   )
VERSE 4                   _______________________________________
4:02||:      5/4         |1.                                    :||
C   |x-------------------|x---------------------------------------|
H   |--X-X-X-X-X-X-X-----|----X---X---X---X---X---X---X-----------|
T3  |----------------OOOO|----------------------------------------|
S   |o-o-o-o-o-o-o-o-OOOO|o---o---o---o---o---o---o---o---OOO-O-O-|
B   |---o-o-o-o-o-o-o----|------o---o---o---o---o---o---o---------|
    (1 + 2 + 3 + 4 + 5 + |1   +   2   +   3   +   4   +   5   +   )
     _______________________________
    |2.       4/4 (extended)       :||
C   |x---------------x-------x-------|
R   |--------------------x-------x---|
H   |----X---X---X-------------------|
S   |o---o---o---o---o-------o-------|
B   |------o---o---o---g---o---o-----|
B2  |---------------o----------------|
    (1   +   2   +   3   +   4   +   )
     _______________________________________
    |3.          5/4 (extended)            :||
C   |x---------------------------------------|
H   |----X---X---X---X---X---X---X-----------|
S   |o---o---o---o---o---o---o---o---OOO-OOO-|
B   |------o---o---o---o---o---o---o---------|
    (1   +   2   +   3   +   4   +   5   +   )
     ________________________________
    |4.                          --->|
C   |x---------------x-------x-------|
R   |--------------------x-------x---|
H   |----X---X---X-------------------|
T3  |------------o-------------------|
S   |o---o---o-------o-------o-------|
B   |------o---o---o---o-------o-----|
B2  |---------------o----------------|
    (1   +   2   +   3   +   4   +   )
BRIDGE
4:25|     15/16     |----Play 2x----|        21/16
C   |x--------------|---------------|---------------------|
H   |---X--X--X--X--|X--X--X--X--X--|X--X--X--X--X--X--X--|
S   |---o-----o----o|---o-----o----o|---o-----o-----o----o|
B   |o-o---o-o---o--|o-o---o-o---o--|o-o---o-o---o-o---o--|
    (123456789012345|123456789012345|123456789012345678901)

4:34       6/4                            30/16
C   |x-----------x-----------|c--1--1--1--1--1--1--1--1--1--|
R   |--x-x-x-x-x---x-x-x-x-x-|------------------------------|
S   |----o---o---o---o---o---|---o-----o-----o-----o-----o--|
B   |o-o-o-o-o-o-o-o-o-o-o-o-|o-o-o-o-o-o-o-o-o-o-o-o-o-o-o-|
B2  |-o-o-o-o-o-o-o-o-o-o-o-o|-o-o-o-o-o-o-o-o-o-o-o-o-o-o-o|
    (1 + 2 + 3 + 4 + 5 + 6 + |123456789012345678901234567890)

4:43
C   |x-----------c-----------|
R   |--x-x-x-x-x---x-x-x-x-x-|
S   |----o---o---o---o---o---|
B   |o-o-o-o-o-o-o-o-o-o-o-o-|
B2  |-o-o-o-o-o-o-o-o-o-o-o-o|
    (1 + 2 + 3 + 4 + 5 + 6 + )
                  12/8 (Extended)                   *
C   |x-----x-----x-----------x-----x-----x-----x---#-|
R   |------------------------------------------------|
S   |--g-g---g-g-----OoooOooo------o-----------o-----|
B   |o-----o-----o-----------o---o---o---o---o---o---|
B2  |--------------------------o---o---o---o---o-----|
    (1 + 2 + 3 + 4 + 5 + 6 + 7 + 8 + 9 + 0 + 1 + 2 + )
*Choke on 1 of next measure.
CHORUS
4:51|--Play 15x--|       Muffled (probably drum machine or overdubbed)
C   |------------|------------|
H   |------------|------------|
S   |------------|----------d-|
B   |------------|------------|
    (1+2+3+4+5+6+|1+2+3+4+5+6+)
POST-CHORUS
5:23|Still muffled
R   |x-x-x-x-x-x-|x-x-x-x-x-x-|x-x-x-x-x-x-|x-x-x-x-x---|
S   |------o--g--|------o-----|------o--g--|------o---dd|
B   |o--g-g-----g|o--o-o---o--|o--o-o-----o|o--o-o------|
    (1+2+3+4+5+6+|1+2+3+4+5+6+|1+2+3+4+5+6+|1+2+3+4+5+6+)

5:31
R   |x-x-x-x-x-x-|x-x-x-x-x-x-|x-x-x-x-x-x-|x-x-x-x-----|
S   |------o--g--|------o--g--|------o--g--|------o-gdOO|
B   |o--g-g-----g|o--o-o-----g|o--o-o------|o--o-o------|
    (1+2+3+4+5+6+|1+2+3+4+5+6+|1+2+3+4+5+6+|1+2+3+4+5+6+)

5:39
R   |x-x-x-x-x-x-|x-x-x-x-x-x-|x-x-x-x-x-x-|x-x-x-x-x---|
S   |------o--d-d|------o--d-g|------o--g--|------o--ddd|
B   |o--g-g------|o--o-o------|o--o-o-----o|o--o-o------|
    (1+2+3+4+5+6+|1+2+3+4+5+6+|1+2+3+4+5+6+|1+2+3+4+5+6+)

5:48
R   |x-x-x-x-x-x-|x-x-x-x-x-x-|x-x-x-x-x-x-|x-x-x-x-xxxxxx|
S   |------o--g--|------o--d-g|-g----o--g--|------o-------|
B   |o--g-g------|o--o-o------|o--o-o-----g|o--o-o--------|
    (1+2+3+4+5+6+|1+2+3+4+5+6+|1+2+3+4+5+6+|1+2+3+4+5tl6tl)
       5/4 (double time)
5:55|-----Play 7x--------|          12/8
S   |--------------------|--F---F---F---F---F-O-O-|
B   |--------------------|O---O---O---O---O-------|
    (1 + 2 + 3 + 4 + 5 + |1+2+3+4+5+6+7+8+9+0+1+2+)

6:10|--------Play 3x---------|
C   |x-----x-----x-----x-----|x-----x-----x-----x-----|
S   |------o-----------o-----|o-----o-----o-----o-----|
B   |o---o---o---o---o---o---|o---o---o---o---o---o---|
B2  |--o---o---o---o---o---o-|--o---o---o---o---o---o-|
    (1+2+3+4+5+6+7+8+9+0+1+2+|1+2+3+4+5+6+7+8+9+0+1+2+)

6:17|--------Play 3x---------|
C   |x-----x-----x-----x-----|x-----------------------|
S   |------o-----------o-----|O-gOO-O-gOO-O-gOO-O-O-O-|
B   |o---o---o---o---o---o---|------------------------|
B2  |--o---o---o---o---o---o-|------------------------|
    (1+2+3+4+5+6+7+8+9+0+1+2+|1+2+3+4+5+6+7+8+9+0+1+2+)
KEYBOARD SOLO
6:26
C   |X-----------------------|------------------------|
H   |------X-----X-----X-----|X-----X-----X-----X-----|
S   |------o-----------o-----|------o-----------o---o-|
B   |o---o-------o---o-------|o---o-------o---o---o---|
    (1+2+3+4+5+6+7+8+9+0+1+2+|1+2+3+4+5+6+7+8+9+0+1+2+)

6:30
C   |------------------------|------------------x-----|
H   |X-----X-----X-----X-----|X-----X-----X-----------|
S   |------o-----------o---o-|------o-----------o-o-o-|
B   |o---o-------o---o-------|o---o-------o---o-------|
    (1+2+3+4+5+6+7+8+9+0+1+2+|1+2+3+4+5+6+7+8+9+0+1+2+)

6:34
C   |x-----x-----------------|------------------------|
H   |------------X-----X-----|X-----X-----X-----X-----|
S   |------o-----------o---o-|------o-----------o---o-|
B   |o---o-------o---o-------|o---o-------o---o---o---|
    (1+2+3+4+5+6+7+8+9+0+1+2+|1+2+3+4+5+6+7+8+9+0+1+2+)

6:38
C   |------------------------|------------------x-----|
H   |X-----X-----X-----X---X-|X---X---X---X-----------|
S   |------o-----------o---o-|------o---o-------o-o-o-|
B   |o---o-------o---o-------|o---o-------o---o-------|
    (1+2+3+4+5+6+7+8+9+0+1+2+|1+2+3+4+5+6+7+8+9+0+1+2+)

6:42
C   |x-----x-----------------|------------------------|
H   |------------X-----X-----|X-----X-----X-----X-----|
S   |------o-----------o-----|------o-----------o---o-|
B   |o---o-------o---o-------|o---o-------o---o---o---|
    (1+2+3+4+5+6+7+8+9+0+1+2+|1+2+3+4+5+6+7+8+9+0+1+2+)

6:46
C   |x-----------------------|------------------------|
H   |------X-----X-----X-----|------------------------|
t2  |------------------------|----O-------------------|
T1  |------------------------|----O-------------------|
T3  |------------------------|------------O-----------|
T4  |------------------------|------------O-----------|
S   |------o-----------o-----|F-------F-------O-O-----|
F   |------------------------|----------------O-O-----|
B   |o---o-------o---o-------|o---o---o---o---o---o---|
B2  |----------------------o-|--o---o---o---o---o---o-|
    (1+2+3+4+5+6+7+8+9+0+1+2+|1+2+3+4+5+6+7+8+9+0+1+2+)

6:50
C   |x-----x-----------------|------------------------|
H   |------------X-----X-----|X-----X-----X-----X---X-|
S   |------o-----------o-----|------o-----------o---o-|
B   |o---o-------o---o-------|o---o-------o---o---o---|
    (1+2+3+4+5+6+7+8+9+0+1+2+|1+2+3+4+5+6+7+8+9+0+1+2+)

6:55
C   |------------------------|------------------------|
H   |--X---X---X---X---X---X-|--X---X---X---X---X-----|
S   |------o---o-------o-----|--o-------o-------o-o-o-|
B   |o---o---o---o---o---o---|o---o---o---o---o-------|
    (1+2+3+4+5+6+7+8+9+0+1+2+|1+2+3+4+5+6+7+8+9+0+1+2+)

6:59
C   |x-----x-----x-----x-----|x-----x-----------------|
H   |------------------------|------------------------|
T3  |------------------------|------------------O-----|
T4  |------------------------|------------O-----------|
S   |------o-----------o-----|------o-----O-----O-----|
B   |o-----o---o-------o---o-|----o---o---o---o---o---|
B2  |----o---o---o---o---o---|o-----o---o---o---o---o-|
    (1+2+3+4+5+6+7+8+9+0+1+2+|1+2+3+4+5+6+7+8+9+0+1+2+)
7:02
C   |x-----------------------|--------------------x-x-|
H   |------X-----X-----X-----|X-----X-----X-----------|
S   |------o-----------o---o-|------o---o---oOO-O-----|
B   |o---o-------o---o-------|o---o-------o-------o-o-|
    (1+2+3+4+5+6+7+8+9+0+1+2+|1+2+3+4+5+6+7+8+9+0+1+2+)

7:06
C   |x-----x-----x-----x-----|x-----x-----x-----x-----|
H   |------------------------|------------------------|
S   |------o-----------o-----|------o-------o-o---o-o-|
B   |o-----o---o-------o---o-|----o---o---o-----o-----|
B2  |----o---o---o---o---o---|o-----o---o-------------|
    (1+2+3+4+5+6+7+8+9+0+1+2+|1+2+3+4+5+6+7+8+9+0+1+2+)
END SOLO
7:11
C   |x---------------|----------------|----------------|
R   |--x-b-x-b-x-b-x-|b-x-b-x-b-x-b-x-|b-x-b-x-b-x-b-x-|
S   |----o-------o--o|----o--o-g--o--o|----o-------o--o|
B   |o-oo----o-oo----|o-oo----o-oo----|o-oo----o-oo----|
    (1 + 2 + 3 + 4 + |1 + 2 + 3 + 4 + |1 + 2 + 3 + 4 + )

C   |----------------x---------------|
R   |b---x---b---x-------------------|
S   |--------o-----o---oOO-O-O-O-O-O-|
B   |o---o-o---------o---------------|
    (1   +   2   +   3   +   4   +   )

7:21
GUITAR SOLO
C   |x---------------|----------------|----------------|----------------|
H   |--x-x-x-x-x-x-x-|x-x-x-x-x-x-x-x-|x-x-x-x-x-x-x-x-|x-x-x-x-x-x-x-x-|
S   |----o-------o--o|----o----o--o--o|----o----o--o--o|----o----o--o--o|
B   |o-oo------oo----|o-oo------oo-o--|o-oo------oo----|o-oo------oo-o--|
    (1 + 2 + 3 + 4 + |1 + 2 + 3 + 4 + |1 + 2 + 3 + 4 + |1 + 2 + 3 + 4 + )

7:31
C   |x---------------|----------------|----------------|
H   |--x-x-x-x-x-x-x-|x-x-x-x-x-x-x-x-|x-x-x-x-x-x-x-x-|
S   |----o----o--o--o|----o----o--o--o|----o----o--o--o|
B   |o-oo------oo----|o-oo------oo----|o-oo------oo----|
    (1 + 2 + 3 + 4 + |1 + 2 + 3 + 4 + |1 + 2 + 3 + 4 + )

C   |----------------------------x---|
H   |x---x---x---s---X---------------|
S   |--------o---------oOO-O-O-O-----|
B   |o---o-o---------o-----------o---|
Hf  |--------------------x-----------|
    (1   +   2   +   3   +   4   +   )

7:41
C   |x---x-----------|----------------|----------------|
H   |--x---x-x-x-x-x-|x-x-x-x-x-x-x-x-|x-x-x-x-x-x-x-x-|
S   |----o----o--o--o|----o----o--o--o|----o----o--o--o|
B   |o-oo------oo----|o-oo------oo----|o-oo------oo----|
    (1 + 2 + 3 + 4 + |1 + 2 + 3 + 4 + |1 + 2 + 3 + 4 + )

S   |oo--oooo--oo--oooo--oo--o-o-o-o-|
B   |--o-----o---o-----o---o---------|
B2  |---o-----o---o-----o---o--------|
    (1   +   2   +   3   +   4   +   )

7:52
C   |x---x-----------|----------------|----------------|
H   |--x---x-x-x-x-x-|x-x-x-x-x-x-x-x-|x-x-x-x-x-s-s-s-|
S   |----o----o--o--o|----o----o--o--o|----o----o--o---|
B   |o-oo------oo----|o-oo------oo-o--|o-oo------oo----|
    (1 + 2 + 3 + 4 + |1 + 2 + 3 + 4 + |1 + 2 + 3 + 4 + )

C   |x-------x-------x---------------|
H   |----s-------s-------------------|
S   |o-------o-------o-oOO-O-O-O-O-O-|
B   |------o-----o-o-----------------|
    (1   +   2   +   3   +   4   +   )

8:01
C   |x-x-x-x-x-x-x-x-|x-x-x-x-------------|
T2  |----------------|----------------oogg|
S   |----o---o---o---|o---o---OOOOOOOO----|
B   |o-oo--oo--oo--oo|--oo--o-------------|
    (1 + 2 + 3 + 4 + |1 + 2 + 3tl+tl4tl+tl)

8:07
C   |x---------------|----------------|
H   |--x-x-x-x-x-x-x-|x-s-s-s-X-------|
S   |----o----o--o--o|----o--o-ooooooo|
B   |o-oo------oo----|o-oo----o-------|
Hf  |----------------|---------x------|
    (1 + 2 + 3 + 4 + |1 + 2 + 3 + 4 + )

8:12
C   |x-x-x-x-x-x-x-x-|x-x-x-x-x-x-x---|
S   |----o---o---o---|o---o---o---o-oo|
B   |o-oo--oo--oo--oo|--oo--oo--oo----|
    (1 + 2 + 3 + 4 + |1 + 2 + 3 + 4 + )
END SOLO
8:16        9/8             8/8 (4/4)
C   |x-----------------|----------------|
H   |----X---X---X---X-|--X---X---X-----|
S   |----o-------o-----|----o-------F-OO|
B   |o-o---o-o-o---o-o-|o-o---o-o-o-----|
B2  |-o-o---o-o--------|-o-o---o-o------|
    (1+2+3+4+5+6+7+8+9+|1+2+3+4+5+6+7+8+)
            9/8             8/8 (4/4)
C   |x-----------------|------------c---|
H   |----X---X---X---X-|--X---X---X-----|
S   |----o-------o-----|----o-------o-oo|
B   |o-o---o-o-o---o-o-|o-o---o-o-o-----|
B2  |-o-o---o-o--------|-o-o---o-o------|
    (1+2+3+4+5+6+7+8+9+|1+2+3+4+5+6+7+8+)
KEYBOARD SOLO
8:27        9/8             8/8 (4/4)
C   |x-----------------|----------------|
H   |----X---X---X---X-|--X---X---X---X-|
S   |----o-------o-----|--o-------o-----|
B   |o-------o-------o-|------o-------o-|
    (1+2+3+4+5+6+7+8+9+|1+2+3+4+5+6+7+8+)
            9/8             8/8 (4/4)
C   |------------------|----------------|
H   |--X---X---X---X---|X---X---X---X---|
S   |--o-------o-------|o-------o-------|
B   |------o-------o---|----o-------o---|
    (1+2+3+4+5+6+7+8+9+|1+2+3+4+5+6+7+8+)
            9/8             8/8 (4/4)
C   |x-----------------|----------------|
H   |----X---X---X---X-|--X---X---X---X-|
S   |o-------o-------o-|------o-------o-|
B   |----o-------o-----|--o-------o-----|
    (1+2+3+4+5+6+7+8+9+|1+2+3+4+5+6+7+8+)
            9/8             8/8 (4/4)
C   |------------------|------------x---|
H   |--X---X---X---X---|X---X---X-------|
S   |------o-------o---|----o-------o-oo|
B   |--o-------o-------|o-------o--d----|
    (1+2+3+4+5+6+7+8+9+|1+2+3+4+5+6+7+8+)
DIFFERENT KEYS SOLO
8:47        9/8             8/8 (4/4)
    |---------------Play 2x-------------|
C   |x---1---1---1---1-|--1---1---1-----|
S   |----o-------o-----|----o-------F-oo|
B   |o-o---o-o-o---o-o-|o-o---o-o-o-----|
B2  |-o-o---o-o--------|-o-o---o-o------|
    (1+2+3+4+5+6+7+8+9+|1+2+3+4+5+6+7+8+)
8:57        9/8             8/8 (4/4)
C   |x-1---1---1---1---|1---1---1---1---|
S   |----o-------o-----|----o-------o-oo|
B   |o-o---o-o-o---o-o-|o-o---o-o-o-----|
B2  |-o-o---o-o--------|-o-o---o-o------|
    (1+2+3+4+5+6+7+8+9+|1+2+3+4+5+6+7+8+)
            9/8             8/8 (4/4)
C   |x---1---1---1---1-|--1---1---1-c---|
S   |----o-------o-----|----o-------o-oo|
B   |o-o---o-o-o---o-o-|o-o---o-o-o-----|
B2  |-o-o---o-o--------|-o-o---o-o------|
    (1+2+3+4+5+6+7+8+9+|1+2+3+4+5+6+7+8+)

9:06
INSANE GUITAR/KEYS UNISON SOLO
C   |x-x-x-x-x-x-x-x-|x-x-x-x-x-x-x---|x-x-x-x-x-x-x-x-|x-x-x-x-x-x-x---|
S   |----o-------o---|----o-------o-oo|----o-------o---|----o----o--o-oo|
B   |o-oo----o-oo----|o-oo----o-oo----|o-oo----o-oo----|o-oo----o-oo-o--|
    (1 + 2 + 3 + 4 + |1 + 2 + 3 + 4 + |1 + 2 + 3 + 4 + |1 + 2 + 3 + 4 + )

9:15
C   |x-x-x-x-x-x-x-x-|x-x-x-x-x-x-x---|x-x-x-x-x-x-x-x-|
T3  |----------------|--------------o-|----------------|
S   |----o-------o---|----o----o--o-oo|----o-------o---|
B   |o-oo----o-oo----|o-oo----o-oo-o--|o-oo----o-oo----|
    (1 + 2 + 3 + 4 + |1 + 2 + 3 + 4 + |1 + 2 + 3 + 4 + )

C   |x-------------------------------|  The drums are drowned out right
T2  |----oo--------------------------|here, i don't know if this is 
T3  |------oo------------------------|correct.
T4  |------------o-o-o--o------------|
S   |o-------o-o-------------o---o-o-|
F   |--------------------o-o---------|
B   |--------------------------o-----|
    (1   +   2   +   3   +   4   +   )
END SOLO
9:24
GUITAR/KEYS UNISON RIFF
C   |x---------------|------------x---|x---x-----------|
H   |--X-X-X-X-X-X-X-|X-X-X-X-X-X-----|--X---X-X-X-X-X-|
S   |----o-------o---|----o----o--o-oo|----o-------o---|
B   |o--o----o--o----|o--o----o-oo-o--|o--o----o--o---d|
    (1 + 2 + 3 + 4 + |1 + 2 + 3 + 4 + |1 + 2 + 3 + 4 + )

C   |x-----------------------x---x---|
H   |----------------X---------------|
S   |O---OOOOO-O-O-O---gOO-O---o---o-|
B   |----------------O-------O---O---|
Hf  |------------------x-------------|
    (1   +   2   +   3   +   4   +   )

9:35
C   |x---x---x-------|x-----------x-x-|x---------------|
H   |--X---X---X-X-X-|--X-X-X-X-X-----|--X-X-X-X-X-X-X-|
S   |----o-------o---|----o----o--o-oo|----o--o----o---|
B   |o--o----o--o----|o--o----o-oo-o--|o--o----o--o--oo|
    (1 + 2 + 3 + 4 + |1 + 2 + 3 + 4 + |1 + 2 + 3 + 4 + )

C   |x-------------------------------|  Not sure about this either.
H   |--------------------------------|
T4  |----------------O-O-------------|
S   |O-------O-O-----------------F---|
F   |----gggg------------O-O---------|
B   |------------O-----------O-O-----|
B2  |--------------O-----------------|
    (1   +   2   +   3   +   4   +   )

9:44
GUITAR/KEYS UNISON (GOING UP)          KEYS ONLY (GOING DOWN)
C   |x---------------|x---------------|x---------------|x---------x---x-|
R   |--x-x-x-x-x-x-x-|--x-x-x-x-x-----|--x-x-x-x-x-x-x-|--x-x-x-x-------|
S   |o---o---o---o---|o---o---o---F-oo|----o--o-o--o--o|----o--o-o--F-o-|
B   |o-o-o-o-o-o-o-o-|o-o-o-o-o-o--o--|o-oo--o-o-oo--o-|o-oo--o-o-oo-o--|
B2  |-o-o-o-o-o-o-o-o|-o-o-o-o-o-o----|----------------|----------------|
    (1 + 2 + 3 + 4 + |1 + 2 + 3 + 4 + |1 + 2 + 3 + 4 + |1 + 2 + 3 + 4 + )

9:53
GUITAR/KEYS UNISON (GOING UP)
C   |x---------------|x---------------|
R   |--x-x-x-x-x-x-x-|--x-x-x-x-x-x-x-|
S   |----o---o---o---|o---o---o---o---|
B   |o-o-o-o-o-o-o-o-|o-o-o-o-o-o-o-o-|
B2  |-o-o-o-o-o-o-o-o|-o-o-o-o-o-o-o-o|
    (1 + 2 + 3 + 4 + |1 + 2 + 3 + 4 + )
GUITAR/KEYS UNISON (STAYING UP)
9:57
C   |x-----x-----x-----x-----|x-----x-----x-----x-----|
R   |--g-x---------g-x-------|--x-x---------x-x-------|
T4  |--------oo----------oo--|--------oo----------oo--|
S   |o-----o-----o-----o-----|o-----o-----o-----o-----|
F   |----------o-----------o-|----------o-----------o-|
B   |o-o-o-o-o-o-o-o-o-o-o-o-|o-o-o-o-o-o-o-o-o-o-o-o-|
B2  |-o-o-o-o-o-o-o-o-o-o-o-o|-o-o-o-o-o-o-o-o-o-o-o-o|
    (1 + 2 + 3 + 4 + 5 + 6 + |1 + 2 + 3 + 4 + 5 + 6 + )
LAST CHORUS
10:05   6/8
C   |x-----------|x-----------|x-----------|x-----------|
t   |------------|------------|------------|--------oo--|
t2  |------------|------------|------------|----------oo|
T1  |------------|--------oo--|------------|------------|
T2  |---o--------|----------oo|-----------o|------------|
T3  |---------g--|------------|---------o--|------------|
T4  |-----------o|---o--------|---o----o---|------------|
S   |------F-----|------F-----|------F-----|------F-----|
F   |------------|------------|------------|---o--------|
B   |o----o------|o----o------|o----o------|o----o------|
Hf  |x-x-x-x-x-x-|x-x-x-x-x-x-|x-x-x-x-x-x-|x-x-x-x-x-x-|
    (1+2+3+4+5+6+|1+2+3+4+5+6+|1+2+3+4+5+6+|1+2+3+4+5+6+)

10:12
C   |x-----------|x-----------|x-----------|x-----------|
t   |------------|------------|------------|--oo--------|
t2  |------------|------------|------------|----oo------|
T1  |------------|------------|------------|------oo----|
T2  |---------o--|------------|--------oo--|--------oo--|
T3  |--o--------o|--------oo--|--o---------|----------oo|
T4  |---o----o---|--o-------oo|---o------og|------------|
S   |------F-----|------F-----|------F-----|------------|
F   |----o-------|---o--------|----o-------|------------|
F2  |------------|----o-------|------------|------------|
B   |o----o------|o----o------|o----o------|o-----------|
Hf  |x-x-x-x-x-x-|x-x-x-x-x-x-|x-x-x-x-x-x-|x-x-x-x-x-x-|
    (1+2+3+4+5+6+|1+2+3+4+5+6+|1+2+3+4+5+6+|1+2+3+4+5+6+)

10:20
C   |x-----------|x-----------|x-----x-----|x-----x-----|
t   |------------|------------|------------|------------|
t2  |------------|------------|------------|--------oo--|
T1  |------------|------------|------------|------------|
T2  |---------o--|------------|--------oo--|----------oo|
T3  |--o--------o|--------oo--|--o---------|------------|
T4  |---o----o---|--o-------oo|---o------oo|--o---------|
S   |------F-----|------F-----|------o-----|------o-----|
F   |----o-------|---o--------|----o-------|---o--------|
F2  |------------|----o-------|------------|----o-------|
B   |o----o------|o----o------|o----o------|o----o------|
Hf  |x-x-x-x-x-x-|x-x-x-x-x-x-|x-x-x-x-x-x-|x-x-x-x-x-x-|
    (1+2+3+4+5+6+|1+2+3+4+5+6+|1+2+3+4+5+6+|1+2+3+4+5+6+)

10:27
C   |x-----------|x-----------|x-----------|x-----------|
t   |------------|------------|------------|------oo----|
t2  |------------|------------|------------|--------oo--|
T1  |------------|------------|------------|------------|
T2  |---------o--|------------|--------oo--|----------oo|
T3  |--o--------o|--------oo--|--o---------|------------|
T4  |---o----o---|--o-------oo|---o------oo|------------|
S   |------o-----|------o-----|------F-----|--oooo------|
F   |----o-------|---o--------|----o-------|------------|
F2  |------------|----o-------|------------|------------|
B   |o----o------|o----o------|o----o------|o-----------|
Hf  |x-x-x-x-x-x-|x-x-x-x-x-x-|x-x-x-x-x-x-|x-x-x-x-x-x-|
    (1+2+3+4+5+6+|1+2+3+4+5+6+|1+2+3+4+5+6+|1+2+3+4+5+6+)

10:34
POST-CHORUS
C   |x-----------|x-----------|x-----x-----|x-----x----x-|
R   |--x-x-x-x-x-|--x-x-x-x-x-|--x-x---x-x-|--x-x--------|
S   |------o---oo|------o---oo|------o---oo|------o-oOO--|
B   |o--o-o---o--|o--o-o---o--|o--o-o---o--|o--o-o-----o-|
    (1+2+3+4+5+6+|1+2+3+4+5+6+|1+2+3+4+5+6+|1+2+3+4tl5+6+)

10:41
C   |x-----x-----|x-----x-----|x-----x---x-|x---------x-|
R   |--x-x---x-x-|--x-x---x-x-|--x-x---x---|------------|
t2  |------------|------------|------------|----OO------|
T2  |------------|------------|------------|------OO----|
T3  |------------|------------|------------|--------OO--|
S   |------o---oo|------o---oo|------o---o-|-oOO--------|
B   |o--o-o---o--|o--o-o---o--|o--o-o---d--|o---------o-|
    (1+2+3+4+5+6+|1+2+3+4+5+6+|1+2+3+4+5+6+|1+2+3+4+5+6+)

10:49                                         6/8 still (expanded)
C   |x-----x-----|x-----x---x-|x-----x-----|x-----------x-----------|
R   |--x-x---x-x-|--x-x---x---|--x-x---x-x-|----x---x---------------|
T3  |-----------g|------------|------------|------------------------|
S   |------o-----|------o-oo--|------o---oo|------------o-ooo-o-o-o-|
B   |o--o-d---o-o|o--o-d-o--o-|o--o-d---o--|o-----o---o-------------|
    (1+2+3+4+5+6+|1+2+3+4+5+6+|1+2+3+4+5+6+|1 + 2 + 3 + 4 + 5 + 6 + )

10:56                                                  *
C   |x-----x-----|x-----x-----|x-----x-----|x-----x----#|
R   |--x-x---x-x-|--x-x-------|--x-x---x-x-|--x-x-------|
T3  |------------|--------O-O-|------------|------------|
S   |------o---oo|------o-O-O-|---o--o--o--|o--o--o-ooo-|
B   |o--o-d---o--|o--o-d-o-o--|o----o----oo|----oo------|
    (1+2+3+4+5+6+|1+2+3+4+5+6+|1+2+3+4+5+6+|1+2+3+4+5+6+)
*Choke on first beat of next measure with bass drum.

END
That's all there is to it!  Good luck playing this, I hope you enjoy this because it took me a long time. 
It's not quite as long as A Change of Seasons but it's up there!
Have fun,
Dean Christesen
	
Suggest correction
Creating personal tab
Creating personal tab
You can edit any tab online and save it as your Personal.

You can edit, replace or remove any tab part or add personal notes – all changes will be seen only by you.

Personal tabs can be accessed anytime from any device, even offline.
Learn more »
Give kudos to tab author, rate the tab!
1 2 3 4 5
comments
print report bad tab
guest
You may want to rate the tab now too:
select rating
Wanna post a correction for this tab? Suggest correction