Oops, an error
Loading. Please wait.

Beyond This Life tab

version 3
version 3

Whole song

Interactive

4,727 views 12 this week
no commentswrite comment
1 2 3 4 5
x 4
add to favorites
×
Save as Personal and add changes to this tab that will be seen only by you. Learn more ›
×
You can save this tab as Personal to edit and correct it or add notes. All changes will be seen only by you. Learn more »
launch autoscroll
font size
0
reset
how to read this tab
guitar tuner
backing track
0:00
0:00
edit
Autoscroll
slow
fast
+/-
esc
set tempo
stop
Author
Difficulty
Gtr I (E A D G B E) - 'intro left'
Gtr II (E A D G B E) - 'Intro Right'
Gtr III (E A D G B E) - 'Petrucci'
Gtr IV (E A D G B E) - 'Verse'
Gtr V (E A D G B E) - 'Acoustic'
Gtr VI (E A D G B E) - 'Tremolo'


 Intro
  Fast Q=168
  G#5   B5    G5  F#5   G#5   B5    G5  F#5
 5/4
  Gtr I
  E E E E E E E E E E   E E E E E E E E E E
|---------------------|---------------------|
|---------------------|---------------------|
|---------------------|---------------------|
|---------------------|---------------------|
|-6-6-6-9-9-9-5-5-4-4-|-6-6-6-9-9-9-5-5-4-4-|
|-4-4-4-7-7-7-3-3-2-2-|-4-4-4-7-7-7-3-3-2-2-|


  G#5   B5    G5  F#5   C5       B5    Bb5  A5
  Gtr I
  E E E E E E E E E E    E  E  E E E E E  E   E   E
|---------------------|-----------------------------|
|---------------------|-----------------------------|
|---------------------|-----------------------------|
|---------------------|-----------------------------|
|-6-6-6-9-9-9-5-5-4-4-|-10-10-10-9-9-9-8--8---7---7-|
|-4-4-4-7-7-7-3-3-2-2-|--8--8--8-7-7-7-6--6---5---5-|
|
| Gtr II
| W                      H         Q   E  E  +Q
|---------------------|-----------------------------|
|---------------------|-----------------------------|
|---------------------|-----------------------------|
|---------------------|-----------------------------|
|---------------------|-----------------------------|
|---------------------|------------------14-(14)\---|


    G#5   B5    G5  F#5   G#5   B5    G5  F#5
    Gtr III
    E E E E E E E E E E   E E E E E E E E E E
||----------------------|---------------------|
||o---------------------|---------------------|
||----------------------|---------------------|
||----------------------|---------------------|
||o-6-6-6-9-9-9-5-5-4-4-|-6-6-6-9-9-9-5-5-4-4-|
||--4-4-4-7-7-7-3-3-2-2-|-4-4-4-7-7-7-3-3-2-2-|


  G#5   B5    G5  F#5   C5       B5    Bb5 A5
  E E E E E E E E E E    E  E  E E E E E E E E
|---------------------|--------------------------||
|---------------------|-------------------------o||
|---------------------|--------------------------||
|---------------------|--------------------------||
|-6-6-6-9-9-9-5-5-4-4-|-10-10-10-9-9-9-8-8-7-7--o||
|-4-4-4-7-7-7-3-3-2-2-|--8--8--8-7-7-7-6-6-5-5---||


 4/4               7/8             4/4               7/8
  E E E E E E E E   E E E E E E E   E E E E E E E E   E E E E E E E
|-----------------|---------------|-----------------|---------------|
|-----------------|---------------|-----------------|---------------|
|-----------------|---------------|-----------------|---------------|
|-----------------|---------------|-----------------|---------------|
|-------6-------5-|-------3p2-----|-------6-------5-|-------3p2-----|
|-4-2-4---4-2-4---|-4-2-4-----4-2-|-4-2-4---4-2-4---|-4-2-4-----4-2-|


 4/4               7/8             4/4
  E E E E E E E E   E E E E E E E   E E E E E E E E
|-----------------|---------------|-----------------|
|-----------------|---------------|-----------------|
|-----------------|---------------|-----------------|
|-----------------|---------------|-----------------|
|-------6-------5-|-------3p2-----|-------6-------8-|
|-4-2-4---4-2-4---|-4-2-4-----4-2-|-4-2-4---4-2-4---|


                      2/4
  E E E E E E  E S S    E E E E
|--------------------|----------|
|--------------------|----------|
|--------------------|----------|
|--------------------|----------|
|-------9-8-9-11-9-8-|----8-----|
|-7-6-7--------------|-10---7-6-|


    G#5   B5    G5  F#5   G5    B5    G5  F#5
   5/4
    Gtr III
    E E E E E E E E E E   E E E E E E E E E E
||----------------------|---------------------|
||o---------------------|---------------------|
||----------------------|---------------------|
||----------------------|---------------------|
||o-6-6-6-9-9-9-5-5-4-4-|-6-6-6-9-9-9-5-5-4-4-|
||--4-4-4-7-7-7-3-3-2-2-|-4-4-4-7-7-7-3-3-2-2-|


  G#5   B5    G5  F#5   C5       B5    Bb5 A5
  E E E E E E E E E E    E  E  E E E E E E E E
|---------------------|-------------------------||
|---------------------|------------------------o||
|---------------------|-------------------------||
|---------------------|-------------------------||
|-6-6-6-9-9-9-5-5-4-4-|-10-10-10-9-9-9-8-8-7-7-o||
|-4-4-4-7-7-7-3-3-2-2-|--8--8--8-7-7-7-6-6-5-5--||


 Verse 1
                                         C5       B5    Bb5 A5
               Gtr IV                    Gtr III
  Wx8              Q.   E +Q   Q  Q   7x  E  E  E E E E E E E E
|--------------||---------------------||------------------------||
|--------------||o-------------------o||------------------------||
|--------------||-------4-(4)---------||------------------------||
|--------------||--6-----------5--4---||------------------------||
|--------------||o-------------------o||-10-10-10-9-9-9-8-8-7-7-||
|--------------||---------------------||--8--8--8-7-7-7-6-6-5-5-||


 Chorus 1
  C#5
   E  E  E  E  +E   E  Q   Q
|-----------------------------|
|-----------------------------|
|-----------------------------|
|-11-11-11-11-(11)-11-11--11--|
|-11-11-11-11-(11)-11-11--11--|
|--9--9--9--9--(9)--9--9---9--|


  E
                               ~~
   E  E  E  E  +E   E  Q  Q    Q.   E   +Q   Q  Q
|----------------------------|---------------------|
|----------------------------|---------------------|
|----------------------------|---------------------|
|----------------------------|---------------------|
|-11-11-11-11-(11)-11-11-----|------2b3-(2)--------|
|--0--0--0--0--(0)--0--0--2--|-4-------------3--2--|


                        C#5
  ~~
  Q.   E   +Q   Q  Q     E  E  E  E  +E   E  Q   Q
|---------------------|-----------------------------|
|---------------------|-----------------------------|
|---------------------|-----------------------------|
|---------------------|-11-11-11-11-(11)-11-11--11--|
|------2b3-(2)--------|-11-11-11-11-(11)-11-11--11--|
|-4-------------3--2--|--9--9--9--9--(9)--9--9---9--|


  E
   E  E  E  E  +E   E  Q  Q
|----------------------------|
|----------------------------|
|----------------------------|
|----------------------------|
|-11-11-11-11-(11)-11-11-----|
|--0--0--0--0--(0)--0--0--2--|


  D#                            A5
   E  E  E  E  +E   E  Q   Q    E E E E +E  E Q  Q
|-----------------------------|---------------------|
|-----------------------------|---------------------|
|-----------------------------|---------------------|
|-----------------------------|---------------------|
|-10-10-10-10-(10)-10-10--10--|-7-7-7-7-(7)-7-6--6--|
|-11-11-11-11-(11)-11-11--11--|-5-5-5-5-(5)-5-5--5--|


 4/4               7/8             4/4               7/8
  E E E E E E E E   E E E E E E E   E E E E E E E E   E E E E E E E
|-----------------|---------------|-----------------|---------------|
|-----------------|---------------|-----------------|---------------|
|-----------------|---------------|-----------------|---------------|
|-----------------|---------------|-----------------|---------------|
|-------6-------5-|-------3p2-----|-------6-------5-|-------3p2-----|
|-4-2-4---4-2-4---|-4-2-4-----4-2-|-4-2-4---4-2-4---|-4-2-4-----4-2-|


 4/4               7/8
  E E E E E E E E   E E E E E E E
|-----------------|---------------|
|-----------------|---------------|
|-----------------|---------------|
|-----------------|---------------|
|-------6-------5-|-------3p2-----|
|-4-2-4---4-2-4---|-4-2-4-----4-2-|


 4/4                                    2/4
  E E E E E E E E   E E E E E E  E S S    E E E E
|-----------------|--------------------|------------|
|-----------------|--------------------|------------|
|-----------------|--------------------|------------|
|-----------------|--------------------|------------|
|-------6-------8-|-------9-8-9-11-9-8-|----8-------|
|-4-2-4---4-2-4---|-7-6-7--------------|-10---7-6---|


   Verse 2
   5/4
    Gtr I
    H       Q   Q  Q   3x Q.   E +Q   Q  Q      H       Q   Q  Q    3x
||---------------------||-------------------||----------------------||
||o-------------------o||-------------------||o-------------3--4---o||
||---------------------||-------------------||----------------------||
||--------------5--4---||-5----4-(4)--3--2--||----------------------||
||o-------------------o||-------------------||o--------------------o||
||---------------------||-------------------||----------------------||
|
|   Gtr II
|   Q.   E +H.         3x Q.   E +Q   Q  Q      Q.   E +H.          3x
||---------------------||-------------------||----------------------||
||o-------------------o||-------------------||o--------------------o||
||-------4-(4)---------||-5----4-(4)--3--2--||-------4-(4)----------||
||--6------------------||-------------------||--6-------------------||
||o-------------------o||-------------------||o--------------------o||
||---------------------||-------------------||----------------------||


  Q.   E +Q   Q  Q    H       Q   Q  Q
|-------------------|-------------------|
|-8----7-(7)--6--5--|-------------6--7--|
|-------------------|-------------------|
|-------------------|-------------------|
|-------------------|-------------------|
|-------------------|-------------------|
|
| Q.   E +Q   Q  Q    Q.   E +H.
|-------------------|-------------------|
|-------------------|-------------------|
|-5----4-(4)--3--2--|------4-(4)--------|
|-------------------|-6-----------------|
|-------------------|-------------------|
|-------------------|-------------------|


  +H.          Q  Q    +H.          Q  Q
|--------------------|----------------------|
|-(7)----------6--7--|-(7)----------6--7----|
|--------------------|----------------------|
|--------------------|----------------------|
|--------------------|----------------------|
|--------------------|----------------------|
|
|  Q.   E +H.           Q.   E +H.
|--------------------|----------------------|
|--------------------|----------------------|
|-------4-(4)--------|-------4-(4)----------|
|--6-----------------|--6-------------------|
|--------------------|----------------------|
|--------------------|----------------------|


  Gtr I
  Q.   E +Q   Q  Q    H       Q   Q  Q
|-------------------|-------------------|
|-8----7-(7)--6--5--|-------------6--7--|
|-------------------|-------------------|
|-------------------|-------------------|
|-------------------|-------------------|
|-------------------|-------------------|
|
| Q.   E +Q   Q  Q    Q.   E +H.
|-------------------|-------------------|
|-------------------|-------------------|
|-------------------|------4-(4)--------|
|-5----4-(4)--3--2--|-6-----------------|
|-------------------|-------------------|
|-------------------|-------------------|


  +H.          Q  Q    +H.          Q  Q
|--------------------|----------------------|
|-(7)----------6--7--|-(7)----------6--7----|
|--------------------|----------------------|
|--------------------|----------------------|
|--------------------|----------------------|
|--------------------|----------------------|
|
|  Q.   E +H.           Q.   E +H.
|--------------------|----------------------|
|--------------------|----------------------|
|-------4-(4)--------|-------4-(4)----------|
|--6-----------------|--6-------------------|
|--------------------|----------------------|
|--------------------|----------------------|


  C5        B5      Bb5 A5
   Q.       E +Q    Q   Q
|---------------------------||
|--8--------7-(7)---6---5---||
|---------------------------||
|---------------------------||
|---------------------------||
|---------------------------||
|
| Gtr III
|  E   E  E E  E  E E E E E
|---------------------------||
|---------------------------||
|---------------------------||
|---------------------------||
|-10--10-10-9--9--9-8-8-7-7-||
|--8---8--8-7--7--7-6-6-5-5-||


 Chorus 2
  C#5                           E
   W                             W
|-----------------------------|----------------------------|
|-----------------------------|----------------------------|
|-----------------------------|----------------------------|
|-----------------------------|----------------------------|
|-----------------------------|----------------------------|
|-----------------------------|----------------------------|
|
|  E  E  E  E  +E   E  Q   Q     E  E  E  E  +E   E  Q  Q
|-----------------------------|----------------------------|
|-----------------------------|----------------------------|
|-----------------------------|----------------------------|
|-11-11-11-11-(11)-11-11--11--|----------------------------|
|-11-11-11-11-(11)-11-11--11--|-11-11-11-11-(11)-11-11-----|
|--9--9--9--9--(9)--9--9---9--|--0--0--0--0--(0)--0--0--2--|


                            C#5
                            Gtr III
    ~~
    Q.   E   +Q   Q  Q       E  E  E  E  +E   E  Q   Q
||-----------------------||-----------------------------|
||o---------------------o||-----------------------------|
||-----------------------||-----------------------------|
||-----------------------||-11-11-11-11-(11)-11-11--11--|
||o------2b3-(2)--------o||-11-11-11-11-(11)-11-11--11--|
||--4-------------3--2---||--9--9--9--9--(9)--9--9---9--|


  E
   E  E  E  E  +E   E  Q   Q
|-----------------------------|
|-----------------------------|
|-----------------------------|
|-----------------------------|
|-11-11-11-11-(11)-11-11--11--|
|--0--0--0--0--(0)--0--0---0--|


  D#                            A5
                               6/4
   E  E  E  E  +E   E  Q   Q    E E E E +E  E Q  E E Q
|-----------------------------|-------------------------|
|-----------------------------|-------------------------|
|-----------------------------|-------------------------|
|-----------------------------|-------------------------|
|-10-10-10-10-(10)-10-10--10--|-7-7-7-7-(7)-7-6--6-6-6--|
|-11-11-11-11-(11)-11-11--11--|-5-5-5-5-(5)-5-5--5-5-5--|


  C#5                           D#
 5/4
   E  E  E  E  +E   E  Q   Q     E  E  E  E  +E   E  Q   Q
|-----------------------------|-----------------------------|
|-----------------------------|-----------------------------|
|-----------------------------|-----------------------------|
|-11-11-11-11-(11)-11-11--11--|-----------------------------|
|-11-11-11-11-(11)-11-11--11--|-10-10-10-10-(10)-10-10--10--|
|--9--9--9--9--(9)--9--9---9--|-11-11-11-11-(11)-11-11--11--|


  D#        E#        D#/G      A/C#
 3/4
  H.        H.        H.        H.
|---------|---------|---------|-------|
|---------|---------|---------|-------|
|-8-------|---------|---------|-------|
|-8-------|-7-------|-5-------|-7-----|
|-6-------|-8-------|-6-------|-4-----|
|---------|---------|---------|-------|


   Bridge 1
    Gtr V
    Q   E Q  E    Q   Q  Q    Q   E Q  E    Q   Q  Q
||-------------|--0---------|------------|--0----------|
||o-------6----|------6-----|-------6----|------6------|
||------7----7-|---------7--|-----7----7-|---------7---|
||--0----------|-(0)--------|------------|-------------|
||o------------|------------|------------|-------------|
||-------------|------------|-7----------|-(7)---------|
    H.           +H.          H.           +H.


  Q   E Q  E    Q   Q  Q    E  E E Q  E   E  E E Q  E
|------------|--0---------|--------0----|--------0----|
|-------6----|------6-----|------6----6-|------6----6-|
|-----7----7-|---------7--|----7--------|----7--------|
|------------|------------|-5-----------|-6-----------|
|------------|------------|-------------|-------------|
|-4----------|-(4)--------|-------------|-------------|
  H.           +H.          H.            H.


  Q   E Q  E    Q   Q  Q    Q   E Q  E    Q   Q  Q    Q   E Q  E    Q   Q  Q
|------------|--0---------|------------|--0---------|------------|--0---------|
|-------6----|------6-----|-------6----|------6-----|-------6----|------6-----|
|-----7----7-|---------7--|-----7----7-|---------7--|-----7----7-|---------7--|
|-0----------|-(0)--------|------------|------------|------------|------------|
|------------|------------|------------|------------|------------|------------|
|------------|------------|-7----------|-(7)--------|-6----------|-(6)--------|
  H.           +H.          H.           +H.          H.           +H.


  1.                         2.
  Q   E Q  E    Q   Q  Q      Q  E Q     E   W
|------------|--0----------||--------------|----------|
|-------6----|------6-----o||------6-------|----------|
|-----7----7-|---------7---||----7---------|----------|
|------------|-------------||--------------|----------|
|------------|------------o||--------------|----------|
|-0----------|-(0)---------||-0------(0)-0-|-1--2--3--|
  H.           +H.            H      +E  E   Q  Q  Q


   Interlude
   5/4
    ~~
    Q.   E    +Q   Q  Q   3x Q   Q   +E  E +E  Q   E
||------------------------||-------------------------|
||o----------------------o||-----------------------0-|
||------------------------||-----0---(0)-1-(1)-3-----|
||------------------------||-------------------------|
||o------2b3==(2)--------o||-3-----2-(2)----1----0---|
||--4--------------3--2---||-------------------------|
                             Q.    E +Q     Q    Q


    +Q   Q   +E  E +Q.    E   3x
||----------------------------||
||o-(0)----------------------o||
||-------1---(1)-1-(1)----1---||
||----------------------------||
||o--------2-(2)-------------o||
||---4--------------3---2-----||
     Q.    E +Q     Q   Q


  C5       B5    Bb5 A5
  Gtr III
   E  E  E E E E E E E E
|------------------------|
|------------------------|
|------------------------|
|------------------------|
|-10-10-10-9-9-9-8-8-7-7-|
|--8--8--8-7-7-7-6-6-5-5-|


 Guitar solo
   S  S  S  S  S  S  S  S  S  S  S  S  S  S  S  S  S  S  S  S
|--------------------------------------------------------------|
|-15-16-12-15----12-------12-15----12-15-16-12-15----12--------|
|-------------16----15-16-------16----------------16----15-16--|
|--------------------------------------------------------------|
|--------------------------------------------------------------|
|--------------------------------------------------------------|


   S  S  S  S  S  S  S  S  S  S  S  S  S  S  S  S  S  S  S  S
|-------------------------------------------------------------|
|-------------------------------------12-15----12-15-16-12-15-|
|-12-15----12-------12-15----12-15-16-------16----------------|
|-------17----16-17-------17----------------------------------|
|-------------------------------------------------------------|
|-------------------------------------------------------------|


   S  S  S  S  S  S  S  S  S  S  S  S  S  S  S  S  S  S  S  S
|-------------------------------13-14----13-14-18-13-14----13--|
|----12-------12-15----12----16-------16----------------16-----|
|-16----15-16-------16----15-----------------------------------|
|--------------------------------------------------------------|
|--------------------------------------------------------------|
|--------------------------------------------------------------|


   S  S  S  S  S  S  S  S  S  S  S  S  S  S  S  S  S  S  S  S
|-16-12----16----12-17-13----17----13----14-18-14-19-15----15-|
|-------13----13----------14----14----15----------------16----|
|-------------------------------------------------------------|
|-------------------------------------------------------------|
|-------------------------------------------------------------|
|-------------------------------------------------------------|


  Gtr III
   S  S  S  S  S  S  S  S  S  S  S  S  S  S  S  S  S  S  S  S
|-------------------------------------------------------------|
|-18-19-15-18----15-------15-18----15-18-19-15-18----15-------|
|-------------19----18-19-------19----------------19----18-19-|
|-------------------------------------------------------------|
|-------------------------------------------------------------|
|-------------------------------------------------------------|
|
| Gtr IV
|  S  S  S  S  S  S  S  S  S  S  S  S  S  S  S  S  S  S  S  S
|-------------------------------------------------------------|
|-15-16-12-15----12-------12-15----12-15-16-12-15----12-------|
|-------------16----15-16-------16----------------16----15-16-|
|-------------------------------------------------------------|
|-------------------------------------------------------------|
|-------------------------------------------------------------|


   S  S  S  S  S  S  S  S  S  S  S  S  S  S  S  S  S  S  S  S
|--------------------------------------------------------------|
|-------------------------------------15-18----15-18-19-15-18--|
|-15-18----15-------15-18-16----18-19-------19-----------------|
|-------20----19-20----------21--------------------------------|
|--------------------------------------------------------------|
|--------------------------------------------------------------|
|
|  S  S  S  S  S  S  S  S  S  S  S  S  S  S  S  S  S  S  S  S
|--------------------------------------------------------------|
|-------------------------------------12-15----12-15-16-12-15--|
|-12-15----12-------12-15----12-15-16-------16-----------------|
|-------17----16-17-------17-----------------------------------|
|--------------------------------------------------------------|
|--------------------------------------------------------------|


   S  S  S  S  S  S  S  S  S  S  S  S  S  S  S  S  S  S  S  S
|-------------------------------16-17----16-17-21-16-17----16-|
|----15-------15-18----15-18-19-------19----------------19----|
|-19----18-19-------19----------------------------------------|
|-------------------------------------------------------------|
|-------------------------------------------------------------|
|-------------------------------------------------------------|
|
|  S  S  S  S  S  S  S  S  S  S  S  S  S  S  S  S  S  S  S  S
|-------------------------------13-14----13-14-18-13-14----13-|
|----12-------12-15----12-15-16-------16----------------16----|
|-16----15-16-------16----------------------------------------|
|-------------------------------------------------------------|
|-------------------------------------------------------------|
|-------------------------------------------------------------|


   S  S  S  S  S  S  S  S  S  S  S  S  S  S  S  S  S  S  S  S
|-19-15----19----15-20-16----20----16----17-21-17-22-18----18--||
|-------16----16----------17----17----18----------------19-----||
|--------------------------------------------------------------||
|--------------------------------------------------------------||
|--------------------------------------------------------------||
|--------------------------------------------------------------||
|
|  S  S  S  S  S  S  S  S  S  S  S  S  S  S  S  S  S  S  S  S
|-16-12----16----12-17-13----17----13----14-18-14-19-15----15--||
|-------13----13----------14----14----15----------------16-----||
|--------------------------------------------------------------||
|--------------------------------------------------------------||
|--------------------------------------------------------------||
|--------------------------------------------------------------||


   Verse 3
    Faster Q=184
   4/4
    Gtr III
    E E E E E E E E   E E E E E E E E   E E E E E E S S E
||------------------|-----------------|-------------------|
||o-----------------|-----------------|-------------------|
||------------------|-----------------|-----------1-------|
||------------------|-----------------|-------------4-1---|
||o-------2---4p2---|-----------------|-------2---------2-|
||--2h4-4---4-----4-|-2h4-4-4-2h4-4-4-|-2h4-4---4---------|


  E E E E E E E E   E E E E E E E E   E E E E E E E E   E E E E E E S S E
|-----------------|-----------------|-----------------|--------------------|
|-----------------|-----------------|-----------------|--------------------|
|-----------------|-----------------|-----------------|--------------------|
|-----------4-3---|-----------------|-----------------|--------------------|
|---4-----4-----4-|-------2---4p2---|-----------------|-------2---4--------|
|-1---1s2---------|-2h4-4---4-----4-|-2h4-4-4-2h4-4-4-|-2h4-4---4---2-3-4--|


                    6/4
  Q.   E +Q   Q      E E E  E  E  E  E  E  E  E  E  E
|-----------------||----------------------------------|
|----------------o||----------------------------------|
|-----------------||----------------------------------|
|-4----6-(6)------||-------------------------11-13-14-|
|-2----4-(4)--4--o||----------------------11----------|
|-------------2---||-9-8-9-11-12-11-12-14-------------|


   E E  E  E  E E E E  E E E E
|------------------------------|
|------------------------------|
|------------------------------|
|------------------------------|
|-11---11-13-14---7-9-11---4-6-|
|----0----------0--------0-----|


 4/4
                                ~~
  S S E E E E E E E   E e E e E Q.     S S E E E E E E E
|-------------------|----------------|-------------------|
|-------------------|----------------|-------------------|
|-------------------|----------------|-------------------|
|-------------------|----------------|-------------------|
|-------2---2-4-5-6-|-2--------------|-------2---2-4-5-6-|
|-2-3-4---4---------|---4---4---4----|-2-3-4---4---------|


                  6/4
            ~~
  E e E e E Q.     E E E  E  E  E  E  E  E  E  E  E
|----------------|----------------------------------|
|----------------|----------------------------------|
|-4--------------|----------------------------------|
|---6---6---6----|-------------------------11-13-14-|
|----------------|----------------------11----------|
|----------------|-9-8-9-11-12-11-12-14-------------|


   E E  E  E  E E E E  E E E E
|------------------------------|
|------------------------------|
|------------------------------|
|------------------------------|
|-11---11-13-14---7-9-11---4-6-|
|----0----------0--------0-----|


 12/8                      4/4
  E E E E E E E E E E E E   E E E E E E E E   E S S E E E E E E
|-------------------------|-----------------|-------------------|
|-------------------------|-----------------|-------------------|
|-------------------5-----|-----------------|-------------------|
|-5---5-7-5---8-5-----8-7-|-----------------|-------------------|
|---6-------6-----6-------|-6-0-4-6-7-0-6-7-|-9-7-6---7---7-6---|
|-------------------------|-----------------|-------9---5-----4-|


                     6/4                       4/4
    E E E E E E E E   E E E E E E E E E E E E   E E E E E E E E
||------------------|-------------------------|-----------------|
||o-----------------|-------------------------|-----------------|
||------------------|-------------------------|-----------------|
||------------------|-------------------------|-----------------|
||o-------2-------4-|---3---2-----------------|-------2-------4-|
||--2-3-4---4-3-2---|-2---4---4-3-2-3-4-4-4-4-|-2-3-4---4-3-3---|


 6/4                         4/4
  E E E E E E E E S S E E E   E E E E E E E E
|---------------------------|-----------------|
|---------------------------|-----------------|
|---------------------------|-----------------|
|---------------------------|-----------------|
|---3---2-------------------|-------2-------4-|
|-2---4---4-3-2-4-0-0-0-0-0-|-2-3-4---4-3-3---|


                                                  B5C#5   B5C#5
 6/4                       4/4
                                          |-3-|
  E E E E E E E E E E E E   S S E E E E E E E E   E E E E E E E E
|-------------------------|---------------------|-------------------||
|-------------------------|---------------------|------------------o||
|-------------------------|---------------------|-------------------||
|-------------------------|---------------------|-4S6-6-6-4S6-6-6---||
|---3---2-----------------|---------2-----------|-2S4-4-4-2S4-4-4--o||
|-2---4---4-3-2-3-4-4-4-4-|-2-3-4-4---4-3-2-3-4-|-------------------||


 12/8                      3/8     12/8                      3/8
  E E E E E E E E E E E E   E E E   E E E E E E E E E E E E   E E E
|-------------------------|-------|-------------------------|-------|
|-------------------------|-------|-------------------------|-------|
|-------------------------|-------|-------------------------|-------|
|-------------------------|-------|-------------------------|-------|
|-------6-------5-------3p|=2-----|-------6-------5-------3p|=2-----|
|-4-2-4---4-2-4---4-2-4---|---4-2-|-4-2-4---4-2-4---4-2-4---|---4-2-|


 12/8                      3/8     12/8
  E E E E E E E E E E E E   E E E   E E E E E E E E E E E E
|-------------------------|-------|-------------------------|
|-------------------------|-------|-------------------------|
|-------------------------|-------|-------------------------|
|-------------------------|-------|-------------------------|
|-------6-------5-------3p|=2-----|-------6-------8-------9-|
|-4-2-4---4-2-4---4-2-4---|---4-2-|-4-2-4---4-2-4---7-6-7---|


 9/8                     6/4
  E E  E S S  E E E E E   E E E  E  E  E  E  E  E  E  E  E
|-----------------------|----------------------------------|
|-----------------------|----------------------------------|
|-----------------------|----------------------------------|
|-----------------------|-------------------------11-13-14-|
|-8-9-11-9-8----8-------|----------------------11----------|
|------------10---7-5-7-|-9-8-9-11-12-11-12-14-------------|


   E E  E  E  E E E E  E E E E
|-------------------------------|
|-------------------------------|
|-------------------------------|
|-------------------------------|
|-11---11-13-14---7-9-11---4-6--|
|----0----------0--------0------|


 12/8                      3/8     12/8                      3/8
  E E E E E E E E E E E E   E E E   E E E E E E E E E E E E   E E E
|-------------------------|-------|-------------------------|-------|
|-------------------------|-------|-------------------------|-------|
|-------------------------|-------|-------------------------|-------|
|-------------------------|-------|-------------------------|-------|
|-------6-------5-------3p|=2-----|-------6-------5-------3p|=2-----|
|-4-2-4---4-2-4---4-2-4---|---4-2-|-4-2-4---4-2-4---4-2-4---|---4-2-|


 6/4
  E E E  E  E  E  E  E  E  E  E  E
|----------------------------------|
|----------------------------------|
|----------------------------------|
|-------------------------11-13-14-|
|----------------------11----------|
|-9-8-9-11-12-11-12-14-------------|


                                5/4
                                             |---5----| |---5----|
   E E  E  E  E E E E  E E E E   E E E E E E S S S S  S S S  S S S
|------------------------------|-----------------------------------|
|------------------------------|-----------------------------------|
|------------------------------|-----------------------------------|
|------------------------------|-5---5-7-5---8-5--------7-8-10-8-7-|
|-11---11-13-14---7-9-11---4-6-|---6-------6-----6-8-10------------|
|----0----------0--------0-----|-----------------------------------|


 12/8
  E E E  E E E  E E E  E E  E
|-----------------------------|
|---------------------10-8----|
|--------------10-8-----------|
|-8-7---10-8--------5------11-|
|-----6------8----------------|
|-----------------------------|


   Bridge 2
   3/4
    Gtr V
    Q   E Q  E    Q   Q  Q    Q   E Q  E    Q   Q  Q
||-------------|--0---------|------------|--0---------|
||o-------6----|------6-----|-------6----|------6-----|
||------7----7-|---------7--|-----7----7-|---------7--|
||--0----------|-(0)--------|------------|------------|
||o------------|------------|------------|------------|
||-------------|------------|-7----------|-(7)--------|
    H.           +H.          H.           +H.


  Q   E Q  E    Q   Q  Q    E  E E Q  E   E  E E Q  E
|------------|--0---------|--------0----|--------0----|
|-------6----|------6-----|------6----6-|------6----6-|
|-----7----7-|---------7--|----7--------|----7--------|
|------------|------------|-5-----------|-6-----------|
|------------|------------|-------------|-------------|
|-4----------|-(4)--------|-------------|-------------|
  H.           +H.          H.            H.


  Q   E Q  E    Q   Q  Q    Q   E Q  E    Q   Q  Q    Q   E Q  E    Q   Q  Q
|------------|--0---------|------------|--0---------|------------|--0---------|
|-------6----|------6-----|-------6----|------6-----|-------6----|------6-----|
|-----7----7-|---------7--|-----7----7-|---------7--|-----7----7-|---------7--|
|-0----------|-(0)--------|------------|------------|------------|------------|
|------------|------------|------------|------------|------------|------------|
|------------|------------|-7----------|-(7)--------|-6----------|-(6)--------|
  H.           +H.          H.           +H.          H.           +H.


  1.                         2.
  Q   E Q  E    Q   Q  Q      Q  E Q     E   Q   Q  Q
|------------|--0----------||--------------|-----------|
|-------6----|------6-----o||------6-------|-----------|
|-----7----7-|---------7---||----7---------|--------6--|
|------------|-------------||--------------|-----7-----|
|------------|------------o||--------------|-0---------|
|-0----------|-(0)---------||-0------(0)-0-|-----------|
  H.           +H.            H      +E  E   H.


   Bridge 3
    Q   E Q  E    Q   Q  Q    Q   E Q  E
||-------------|--0---------|------------|
||o-------7----|------7-----|-------7----|
||------7----7-|---------7--|-----7----7-|
||--0----------|-(0)--------|-6----------|
||o------------|------------|------------|
||-------------|------------|------------|
    H.           +H.          H.


   Q   Q  Q    Q   E Q  E    Q   Q  Q
|--0---------|------------|--0----------|
|------7-----|-------7----|------7------|
|---------7--|-----7----7-|---------7---|
|-(6)--------|-5----------|-(5)---------|
|------------|------------|-------------|
|------------|------------|-------------|
  +H.          H.           +H.


              1.             2.
  Gtr V
  Q   E Q  E    Q   Q  Q       Q   Q  Q
|------------|--0----------||--0---------|
|-------7----|------7-----o||------7-----|
|-----7----7-|---------7---||---------7--|
|------------|-------------||------------|
|------------|------------o||------------|
|-0----------|-(0)---------||-(0)--------|
  H.           +H.            +H.


 Intrumental Section
 5/4
  Gtr VI
  Q.   E +Q   Q  Q    Q.   E +Q   Q  Q
|-------------------|-------------------|
|-------------------|-------------------|
|-------------------|-------------------|
|-------------------|-------------------|
|------2-(2)--------|------2-(2)--------|
|-4-----------3--2--|-4-----------3--2--|


  Q.   E +Q   Q  Q    Q.   E +Q   Q  Q
|-------------------|---------------------|
|-------------------|---------------------|
|-------------------|---------------------|
|-------------------|---------------------|
|------2-(2)--------|-3----2-(2)--1--0----|
|-4-----------3--2--|---------------------|


  Q.   E +Q   Q  Q    Q.   E +Q   Q  Q    Q.   E +Q   Q  Q
|-------------------|-------------------|--------------------|
|-------------------|-------------------|--------------------|
|-------------------|-------------------|--------------------|
|-------------------|-------------------|--------------------|
|------2-(2)--------|------2-(2)--------|------2-(2)---------|
|-4-----------3--2--|-4-----------3--2--|-4-----------3--2---|


  C5       B5    Bb5   A5      G#5   B5    G5    F#5
 12/8
  Gtr III
                               PM--------------------|
   E  E  E E E E E E E E E E   E E E E E E E E E E E E
|----------------------------|-------------------------|
|----------------------------|-------------------------|
|----------------------------|-------------------------|
|----------------------------|-------------------------|
|-10-10-10-9-9-9-8-8-8-7-7-7-|-6-6-6-9-9-9-5-5-5-4-4-4-|
|--8--8--8-7-7-7-6-6-6-5-5-5-|-4-4-4-7-7-7-3-3-3-2-2-2-|


  G#5   B5    G5    F#5     G#5   B5    G5    F#5
  PM----------------------------------------------|
  E E E E E E E E E E E E   E E E E E E E E E E E E
|-------------------------|-------------------------|
|-------------------------|-------------------------|
|-------------------------|-------------------------|
|-------------------------|-------------------------|
|-6-6-6-9-9-9-5-5-5-4-4-4-|-6-6-6-9-9-9-5-5-5-4-4-4-|
|-4-4-4-7-7-7-3-3-3-2-2-2-|-4-4-4-7-7-7-3-3-3-2-2-2-|


  C5       B5    Bb5   A5      G#5   B5    G5    F#5
   PM------------------------------------------------|
   E  E  E E E E E E E E E E   E E E E E E E E E E E E
|----------------------------|-------------------------|
|----------------------------|-------------------------|
|----------------------------|-------------------------|
|----------------------------|-------------------------|
|-10-10-10-9-9-9-8-8-8-7-7-7-|-6-6-6-9-9-9-5-5-5-4-4-4-|
|--8--8--8-7-7-7-6-6-6-5-5-5-|-4-4-4-7-7-7-3-3-3-2-2-2-|


  G#5   B5    G5    F#5     G#5   B5    G5    F#5
  PM----------------------------------------------|
  E E E E E E E E E E E E   E E E E E E E E E E E E
|-------------------------|-------------------------|
|-------------------------|-------------------------|
|-------------------------|-------------------------|
|-------------------------|-------------------------|
|-6-6-6-9-9-9-5-5-5-4-4-4-|-6-6-6-9-9-9-5-5-5-4-4-4-|
|-4-4-4-7-7-7-3-3-3-2-2-2-|-4-4-4-7-7-7-3-3-3-2-2-2-|


  C5       B5    Bb5   A5
   E  E  E E E E E E E E E E
|----------------------------||
|----------------------------||
|----------------------------||
|----------------------------||
|-10-10-10-9-9-9-8-8-8-7-7-7-||
|--8--8--8-7-7-7-6-6-6-5-5-5-||


 Synth Solo
  Q.   Q.      Q.   Q  E   Q.   Q.      Q.   Q  E
|------------------------|------------------------|
|------------------------|------------------------|
|------------------------|------------------------|
|------------------------|------------------------|
|------2b2.5-------------|------2b2.5-------------|
|-4------------3----2--0-|-4------------3----2--0-|


  Q.   Q.      Q.   Q  E   Q.   Q.      Q.   Q  E
|------------------------|------------------------|
|------------------------|------------------------|
|------------------------|------------------------|
|------------------------|------------------------|
|------2b2.5-------------|------2b2.5-------------|
|-4------------3----2--0-|-4------------3----2--0-|


  Q.   Q.      Q.   Q  E   Q.   Q.      Q.   Q  E
|------------------------|---------------------------|
|------------------------|---------------------------|
|------------------------|---------------------------|
|------------------------|---------------------------|
|------2b2.5-------------|------2b2.5----------------|
|-4------------3----2--0-|-4------------3----2--0----|


  Q.   Q.      Q.   Q  E   Q.   Q.      Q.   Q  E
|------------------------|------------------------|
|------------------------|------------------------|
|------------------------|------------------------|
|------------------------|------------------------|
|------2b2.5-------------|------2b2.5-------------|
|-4------------3----2--0-|-4------------3----2--0-|


  Q.   Q.      Q.   Q  E   Q.   Q.      Q.   Q  E
|------------------------|---------------------------|
|------------------------|---------------------------|
|------------------------|---------------------------|
|------2b2.5-------------|------2b2.5----------------|
|-4------------3----2----|-4------------3----2-------|
|----------------------0-|----------------------0----|


  Q.   Q.      Q.   Q  E   Q.   Q.      Q.   Q.
|------------------------|------------------------|
|------------------------|------------------------|
|------------------------|------------------------|
|------2b2.5-------------|------2b2.5-------------|
|-4------------3----2----|-4----------------------|
|----------------------0-|--------------2----3----|


  Q.   Q.      Q.   Q  E   Q.   Q.      Q.   Q  E
|------------------------|---------------------------|
|------------------------|---------------------------|
|------------------------|---------------------------|
|------------------------|---------------------------|
|------2b2.5-------------|------2b2.5----------------|
|-4------------3----2--0-|-4------------3----2--0----|


  Q.   Q.      Q.   Q  E   Q.   Q.      Q.   Q  E
|------------------------|------------------------|
|------------------------|------------------------|
|------------------------|------------------------|
|------------------------|------------------------|
|------2b2.5-------------|------2b2.5-------------|
|-4------------3----2--0-|-4------------3----2--0-|


  Bb5                 A5          F#5  G5
  Q.   Q.   Q.   Q.     Q.   Q.   Q.   Q.
|---------------------|----------------------|
|---------------------|----------------------|
|---------------------|----------------------|
|---------------------|----------------------|
|-8----8----8----8----|-7----7----4----5-----|
|-6----6----6----6----|-5----5----2----3-----|


  Q.   Q.   Q.   Q  E   Q.   Q.   Q.   Q  E
|---------------------|---------------------|
|---------------------|---------------------|
|---------------------|---------------------|
|---------------------|---------------------|
|------2--------------|------2--------------|
|-4---------3----2--0-|-4---------3----2--0-|


  Bb5                   B5        F#5  G5
  Q.   Q.   Q.   Q.     Q.   Q.   Q.   Q.
|---------------------|----------------------|
|---------------------|----------------------|
|---------------------|----------------------|
|---------------------|----------------------|
|-8----8----8----8----|-9----9----4----5-----|
|-6----6----6----6----|-7----7----2----3-----|


                       1.,2.,3.           4.
   4/4
                                  ~~                 ~~
    S S E E E E E E E   E e E e E Q.    4x E e E e E Q.
||--------------------|-----------------||-----------------|
||o-------------------|----------------o||-----------------|
||--------------------|-----------------||-4---------------|
||--------------------|-----------------||---6---6---6-----|
||o-------2---2-4-5-6-|-2--------------o||-----------------|
||--2-3-4---4---------|---4---4---4-----||-----------------|


 Guitar Solo 2
  Gtr III
  a    +H          +H          +H.            +E  E
|----------------------------|----------------------|
|----------------------------|----------------------|
|-2b4==(2)---------(2)-------|-(2)------------(2)-2-|
|----------------------------|----------------------|
|----------------------------|----------------------|
|----------------------------|----------------------|
|
| Gtr IV
|                                          ~~
|       S  S E E E  E  E E E    E  E E E E Q.
|----------------------------|----------------------|
|----------------------------|----------------------|
|----------------------------|----------------------|
|--------------------------4-|----------------------|
|--------------5----5--7-8---|--5-------------------|
|-------5--6-7---7-----------|-----7---7---7--------|


   \1
  +W           E E E E E Q.
|------------|-----------------|
|------------|-----------------|
|-(2)--------|-------7---7-----|
|------------|-------7---7-----|
|------------|-7h8h9-----------|
|------------|-----------------|
|
|  W           W
|------------|-----------------|
|------------|-----------------|
|------------|-----------------|
|------------|-----------------|
|------------|-----------------|
|------------|-----------------|


  +Q   E E a     +H       +Q   E E E E E E
|-----------------------|------------------|
|-----------------------|------------------|
|-(7)------9b11==(9)----|-(9)--9-9---9---9-|
|-(7)--9p7--------------|------------------|
|-----------------------|------------------|
|-----------------------|------------------|


                         ~
  E E E E +Q   E E   E E H    E a     +E
|------------------|-----------------------|
|------------------|-----------------------|
|---9---9-(9)--7---|-9-7--------9b11==(9)--|
|----------------9-|-----9----x------------|
|------------------|-----------------------|
|------------------|-----------------------|


                       |-3--|
  +Q   E E  a     +Q   E  E E    E E E  E S S E E E
|------7---------------7------|----7-7--------------|
|--------7-10b12-(10)----10p7-|-/7------------------|
|-(9)-------------------------|--------10p9p7---9---|
|-----------------------------|---------------9---9-|
|-----------------------------|---------------------|
|-----------------------------|---------------------|


                                            ~~~
  E E  Q      +E   +Q.      +E   Q.   e E   Q
|-----10b12--(10)-(10)---|-(10)-10----7--------|
|------------------------|----------------/12--|
|------------------------|---------------------|
|-x----------------------|---------------------|
|------------------------|---------------------|
|------------------------|---------------------|


    ~~~~
   +Q    E  a E E E E E   E     E E E E E E E
|-----------------------|---------------------|
|-(12)--10--------------|---------------------|
|----------11s9-7---9---|-7b7.5---------------|
|-----------------9---9-|-------9-7-----------|
|-----------------------|-----------9-8-7-5---|
|-----------------------|-------------------7-|


                                \1
       ~~~~~~~~~~~~~~~~~~~
   E   Q       +E    +Q.    E   W
|-----------------------------|-------|
|-----------------------------|-------|
|-----------------------------|-------|
|-----------------------------|-------|
|-[5]-------------------------|-------|
|-----[5]b7===([5])-([5])---x-|-0-----|


  ~~~~~~~~~
  a    +W
|--------------------------|
|--------------------------|
|-7b9==(7)-----------------|
|--------------------------|
|--------------------------|
|--------------------------|
|
| Gtr IV
|       S  S E E E E E E E
|--------------------------|
|--------------------------|
|------------------------4-|
|--------------5---5-7-8---|
|-------5--6-7---7---------|
|--------------------------|


  S S S S S S S  S S S S   S a     +Q     +E  S S  E E  E  E E   E
|------------------7-8-9--10-9b10==(9)--|-(9)r9p7----7-12----0-/17-|
|---------7-8-9-10----------------------|---------10------12-------|
|-6-7-8-9-------------------------------|--------------------------|
|---------------------------------------|--------------------------|
|---------------------------------------|--------------------------|
|---------------------------------------|--------------------------|
|
|                      ~~
| E   E   E   E    E   Q.                  W
|---------------------------------------|--------------------------|
|---------------------------------------|--------------------------|
|---------------------------------------|--------------------------|
|-5-------------------------------------|--------------------------|
|-----7-------7--------7----------------|--------------------------|
|---------------------------------------|--------------------------|


  E  E  E  E  Q  E a     +E    E E E E a    +E  E E E
|-0-16----14-----------------|------------------------|
|------17----15----9b10==(9)r|=9-7--------------------|
|----------------------------|-----9-7-6b7==(6)r6-4---|
|----------------x-----------|----------------------7-|
|----------------------------|------------------------|
|----------------------------|------------------------|


                    ~~
  a    +E  E E E E  Q  E    S  S  S  S  S  S  S  S  S  S  S  S  S  S  S  S
|------------------------|-------------------------------------------------|
|------------------------|-------------------------------------------------|
|------------------------|-------------------------------------------------|
|-6b7==(6)r6-4---4-------|-------------------------14-15-16-17-14-15-16-17-|
|--------------7---/7----|-------------14-15-16-17-------------------------|
|------------------------|-14-15-16-17-------------------------------------|


   S  S  S  S  S  S  S  S  S  S  S  S  S  S  S  S
|-------------------------------------14-15-16-17-|
|-------------------------14-15-16-17-------------|
|-14-15-16-17-14-15-16-17-------------------------|
|-------------------------------------------------|
|-------------------------------------------------|
|-------------------------------------------------|
|
| Gtrs I, II, IV
|  W
|-------------------------------------------------|
|-------------------------------------------------|
|-------------------------------------------------|
|-------------------------------------------------|
|-------------------------------------------------|
|-------------------------------------------------|


   ~~~~~~~~~~
   a     +H.              E  E    a     +E   E  E  a      +E   E  E   E  E
|-17b19-(17)-------------14-19-|------------14-19-------------------------------|
|------------------------------|-17b19-(17)-------17b19==(17)r17-15--17-15b15.5-|
|------------------------------|------------------------------------------------|
|------------------------------|------------------------------------------------|
|------------------------------|------------------------------------------------|
|------------------------------|------------------------------------------------|
|
|                                                                 ~~~
|         S  S E E E E E  E  E           E   E  E          E   E  Q.
|------------------------------|------------------------------------------------|
|------------------------------|------------------------------------------------|
|------------------------------|------------------------------------------------|
|----------------------------4-|------------------------------------------------|
|----------------5---5-7--8----|---------5--------------------------------------|
|---------5--6-7---7-----------|-------------7-------------7------7-------------|


                                             ~~~~~~~~
   E    E  E  a  E  E  E  E  E    E  a      +E   +H.
|------------------------------|------------------------------|
|------------------------------|------------------------------|
|-16------14-------------------|----14b16==(14)-(14)----------|
|------16----16s14-12----14----|-12---------------------------|
|---------------------14----14-|------------------------------|
|------------------------------|------------------------------|
|
|                                                        ~~
|  S S  E  E     E  E  E  E  E    E          E    E  E E Q.
|------------------------------|------------------------------|
|------------------------------|------------------------------|
|------------------------------|------------------------------|
|----------------------------4-|------------------------------|
|----------5--------5--7--8----|--5---------------------------|
|--5-6--7--------7-------------|-------------7-------7---7----|


   S  S  S S  S S  S  S  S S  S S  S  S  S  S    S  S  S  S  S  S  S  S  S  S  S   S  S  S  S  S
|-10-11-10-7------10-11-10-7------12-13-12-10-|-------13-14-13-12-------17-19-17--14-------19-22-|
|------------10-7------------10-7-------------|-12-10-------------15-12--------------17-15-------|
|---------------------------------------------|--------------------------------------------------|
|---------------------------------------------|--------------------------------------------------|
|---------------------------------------------|--------------------------------------------------|
|---------------------------------------------|--------------------------------------------------|
|
|                                                                              ~~~
|  S  S  E    E    E     E    E    E     E       E     E     E     E     E     Q.
|---------------------------------------------|--------------------------------------------------|
|---------------------------------------------|--------------------------------------------------|
|---------------------------------------------|--------------------------------------------------|
|----------------------------------------4----|--------------------------------------------------|
|-------------5----------5----7----8----------|--5-----------------------------------------------|
|--5--6--7---------7--------------------------|--------7-----------7-----------7-----------------|


   S  S  S  S  S  S  S  S  S  S  S  S  S  S  S  S
|-19-17-------22-24-22-19-------------------------|
|-------19-17-------------22-19-22-24-22-19-------|
|-------------------------------------------21-19-|
|-------------------------------------------------|
|-------------------------------------------------|
|-------------------------------------------------|
|
|  S  S  E     E     E     E     E     E     E
|-------------------------------------------------|
|-------------------------------------------------|
|-------------------------------------------------|
|--------------------------------------------4----|
|--------------5-----------5-----7-----8----------|
|--5--6--7-----------7----------------------------|


   S  S  S  S  S  S  S  S  S  S  S   S  S  E.
|---------------------------------------------|
|---------------------------------------------|
|-21-23-21-19---------------------------------|
|-------------21-19-21-24-21-19---------------|
|-------------------------------21--19--------|
|--------------------------------------22-19--|
|
|                                ~~~
|  E     E     E     E     E     Q.
|---------------------------------------------|
|---------------------------------------------|
|---------------------------------------------|
|---------------------------------------------|
|--5------------------------------------------|
|--------7-----------7-----------7------------|


                          H=H
  C#7
 2/2
   S  S  S  S  S  S  S  S  S  S  S  S  S  S  S  S
|----------19-19-------------------19-19----------|
|-------21-------21-------------21-------21-------|
|----22-------------22-------22-------------22----|
|-23-------------------23-23-------------------23-|
|-------------------------------------------------|
|-------------------------------------------------|
|
|  H                       H
|-------------------------------------------------|
|-------------------------------------------------|
|-------------------------------------------------|
|-11----------------------11----------------------|
|-11----------------------11----------------------|
|--9-----------------------9----------------------|


   S  S  S  S  S  S  S  S  S  S  S  S  S  S  S  S
|----------19-19-------------------19-19----------|
|-------21-------21-------------21-------21-------|
|----22-------------22-------22-------------22----|
|-23-------------------23-23-------------------23-|
|-------------------------------------------------|
|-------------------------------------------------|
|
|  H                       H
|-------------------------------------------------|
|-------------------------------------------------|
|-------------------------------------------------|
|-11----------------------11----------------------|
|-11----------------------11----------------------|
|--9-----------------------9----------------------|


  C7
   S  S  S  S  S  S  S  S  S  S  S  S  S  S  S  S
|----------18-18-------------------18-18----------|
|-------20-------20-------------20-------20-------|
|----21-------------21-------21-------------21----|
|-22-------------------22-22-------------------22-|
|-------------------------------------------------|
|-------------------------------------------------|
|
|  H                       H
|-------------------------------------------------|
|-------------------------------------------------|
|-------------------------------------------------|
|-10----------------------10----------------------|
|-10----------------------10----------------------|
|--8-----------------------8----------------------|


  H.=H
  A7                      A#7
   S  S  S  S  S  S  S  S  S  S  S  S  S  S  S  S
|----------15-15-------------------16-16----------|
|-------17-------17-------------18-------18-------|
|----18-------------18-------19-------------19----|
|-19-------------------19-20-------------------20-|
|-------------------------------------------------|
|-------------------------------------------------|
|
|  H                       H
|-------------------------------------------------|
|-------------------------------------------------|
|-------------------------------------------------|
|--7-----------------------8----------------------|
|--7-----------------------8----------------------|
|--5-----------------------6----------------------|


 4/4
                                                      ~~
   Q      Q   E E E E   a Q   E Q       +E  E E   E   Q.     E E E E
|---------------------|-------0-----------------|--------------------|
|-----------------5---|-3s5-----3b3.5---(3)-----|-3------------------|
|-16\---------2s4---4-|---------------------4---|-----4------4-2-----|
|---------------------|-----------------------4-|----------------4-3-|
|---------------------|-------------------------|--------------------|
|---------------------|-------------------------|--------------------|
|
|                                        ~~~
|  S  S E E E E E E E     E E E E     E  Q.       S S E  E E E E E E
|---------------------|-------------------------|--------------------|
|---------------------|-------------------------|--------------------|
|---------------------|-------------------------|--------------------|
|-------------------4-|-------------------------|------------------4-|
|---------5---5-7-8---|---5---------------------|--------5---5-7-8---|
|--5--6-7---7---------|-----7---7--------7------|-5-6-7----7---------|


                       C#5
  S S E E E E E  E E    E E  E  E  E  E  E  E    Q   S  S  E  Q.   E
|--------------------|------------------------|-----18-------21\-----|
|--------------------|------------------14----|----------------------|
|--------------------|------------13-------11-|-13-----16-18---------|
|-2h3p2-----2--------|------11-------11-------|----------------------|
|-------5-2---5--2---|---------11-------------|----------------------|
|--------------------|--9---------------------|----------------------|
|
|             ~~
| E   E E E E Q.        H          H             H            H
|--------------------|------------------------|----------------------|
|--------------------|------------------------|----------------------|
|-7------------------|------------------------|----------------------|
|-----9---9---9------|-11---------11----------|-11-----------11------|
|--------------------|-11---------11----------|-11-----------11------|
|--------------------|--9----------9----------|--9------------9------|


         D5
   a       Q    E  E   a       E   E  E  E
|-------------------------------------------|
|---------15---15-15r---------15--15-15-15r-|
|-17b19==(17)---------17b19==(17)-----------|
|-------------------------------------------|
|-------------------------------------------|
|-------------------------------------------|
|
|          H                   H
|-------------------------------------------|
|-------------------------------------------|
|-------------------------------------------|
|---------12------------------12------------|
|---------12------------------12------------|
|---------10------------------10------------|


                                                          End Guitar Solo
         A5                    Bb5
                                                                   \3
   a       Q    E   a       E   +E   E   a       E   E      a      W
|-------------------------------------------------------||--------------------------|
|---------17---17r---------18--(18)-18r---------18--18r-||--------22----------------|
|-19b21==(19)------20b22==(20)-(20)-----20b22==(20)-----||-21b23-(21)---------------|
|-------------------------------------------------------||--------------------------|
|-------------------------------------------------------||--------------------------|
|-------------------------------------------------------||--------------------------|
|
|          H                     H                                 E  E E E Q  E E
|-------------------------------------------------------||--------------------------|
|-------------------------------------------------------||--------------------------|
|-------------------------------------------------------||--------------------------|
|----------7---------------------8----------------------||--------------------------|
|----------7---------------------8----------------------||------------5-7---5----5--|
|----------5---------------------6----------------------||---------7------7----7----|


 5/4               4/4
  Gtr III
               ~
  E E Q  Q  Q  Q    E E E E Q  E E   E E Q  Q  Q
|-----------------|----------------|--------------|
|-----------------|----------------|--------------|
|-----------------|----------------|--------------|
|-----------7--9--|----------------|--------------|
|-7---5-----------|---5-7---5----5-|-7---5--------|
|---7----7--------|-7-----7----7---|---7----7-----|


                  5/4               4/4
                                ~
  E E E E Q  E E   E E Q  Q  Q  Q    E E E E Q  E E   E E Q  Q  Q
|----------------|-----------------|----------------|---------------|
|----------------|-----------------|----------------|---------------|
|----------------|-----------------|----------------|---------------|
|----------------|-----------7--9--|----------------|---------------|
|---5-7---5----5-|-7---5-----------|---5-7---5----5-|-7---5---------|
|-7-----7----7---|---7----7--------|-7-----7----7---|---7----7------|


                       5/4
                                       ~~
    E  E E E  Q  E  E   E E  Q  Q  Q   Q
||--------------------|------------8--10--|
||o------8------------|-8-----------------|
||--7-10---7-10--7-10-|---7-10--7--5---7--|
||-------5------------|-5-----------------|
||o-5--8---5--8--5--8-|---5--8--5---------|
||--------------------|-------------------|
    E  E E E  Q  E  E   E E  Q  Q  Q   Q


 4/4
  E  E E E  Q  E  E   E E  Q  Q  Q    4x
|-------------------|-----------------||
|------8------------|-8--------------o||
|-7-10---7-10--7-10-|---7-10--7-------||
|------5------------|-5---------------||
|-5--8---5--8--5--8-|---5--8--5------o||
|-------------------|-----------------||
  E  E E E  Q  E  E   E E  Q  Q  Q


                    5/4               4/4
                                  ~
    E E E E Q  E E   E E Q  Q  Q  Q    E E E E Q  E E   E E Q  Q  Q
||-----------------|-----------------|----------------|-----------------||
||o----------------|-----------------|----------------|----------------o||
||-----------------|-----------------|----------------|-----------------||
||-----------------|-----------1--3--|----------------|-----------------||
||o-----1----------|-1---------------|-----1----------|-1--------------o||
||--1-4---1-4--1-4-|---1-4--1--------|-1-4---1-4--1-4-|---1-4--1--------||


                       5/4
                                       ~~
    E  E E E  Q  E  E   E E  Q  Q  Q   Q
||--------------------|-------------------|
||o-------------------|-------------------|
||--------------------|------------8--10--|
||-------8------------|-8-----------------|
||o-8-11---8-11--8-11-|---8-11--8---------|
||--------------------|-------------------|


 4/4
  E  E E E  Q  E  E   E E  Q  Q  Q
|-------------------|------------------||
|-------------------|-----------------o||
|-------------------|------------------||
|------8------------|-8----------------||
|-8-11---8-11--8-11-|---8-11--8-------o||
|-------------------|------------------||


 Guitar/Key Unison
  H    Q.   E   S S E E S S S S E Q    E S S S S S S e S S S S S S
|-4---------4-|----------------------|---------------------------7-|
|------7------|-7-4-------4----------|-----------------------6-8---|
|-------------|-----6-4-6---6-4------|---------3-4-7-6-6-7-9-------|
|-------------|-----------------6-4--|---4-5-6---------------------|
|-------------|----------------------|-----------------------------|
|-------------|----------------------|-----------------------------|


      |-3--| |--3--|  |-3-|   |--3--|                            |---5---|
  Q   E  E E E  E  E  E E E   Q  Q  Q Q       E E      +H        E E E E E
|-6-------------------------|------10-9tr10-----8tr9-|-(8tr9)--------------|
|----12-11-9-8-12-----------|---11-----------10------|---------------------|
|-----------------11-10-8-9-|-7----------------------|---------------6-9-8-|
|---------------------------|------------------------|-------------7-------|
|---------------------------|------------------------|-----------8---------|
|---------------------------|------------------------|---------------------|


  |---5----|  |--3--|
  E E E  E E  Q  Q  Q    E  E E  E      +H
|-----6-10-9----10-14-|-13------12tr13-(12tr13)----|
|---7--------11-------|----14----------------------|
|-7-------------------|----------------------------|
|---------------------|----------------------------|
|---------------------|----------------------------|
|---------------------|----------------------------|


   E  S  S  E  E  E  E  S  S  S S
|---------------------------------|
|-15-14-13-12-15-11-10-12-11-10-9-|
|---------------------------------|
|---------------------------------|
|---------------------------------|
|---------------------------------|


                                                              PM--------|
              |-3-|                               |--3--|     |-3-| |-3-|
   E  E  E  E Q Q Q    E E Q   S  S E  S  E.   E  S  S  S  Q  E E E E E E
|-------------------|-10-6------------15-12--|----------------------------|
|----12-------------|------------------------|----------------------------|
|-12----11-10---7-8-|---------12-13----------|---18-14--------------------|
|-------------------|------------------------|---------15-14------6-6-5-5-|
|-------------------|------------------------|----------------7-7---------|
|-------------------|------------------------|----------------------------|


  |-3-| |-3-| |-3-| |-3-|   |-3-| |--3--|  |--3--|  |--3--|
  E E E E E E E E E E E E   E E E E  E  E  E  E  E  E  E  E
|-------------------------|-9-9-8-8-13-13-12-14-15-16-17-18-|
|---------6-6-5-5-9-9-8-8-|---------------------------------|
|-6-6-5-5-----------------|---------------------------------|
|-------------------------|---------------------------------|
|-------------------------|---------------------------------|
|-------------------------|---------------------------------|


  Gtr III
   S  S  S  S  S  S  S  S  S  S  S  S  S  S  S  S
|-19-21-19-21-19-21-19-21-19-21-19-21-19-21-19-21-|
|-------------------------------------------------|
|-------------------------------------------------|
|-------------------------------------------------|
|-------------------------------------------------|
|-------------------------------------------------|
|
| Gtrs I, II, IV
|  Q           S  S  E     E     E     S  S  E
|-------------------------------------------------|
|-------------------------------------------------|
|--4----------------------------------------------|
|--------------6--4--------6-----6-----4----------|
|--------------------6--------------------6--4----|
|-------------------------------------------------|


                              ~~~~~~~~~~~
   S  S  S  S  S  S  S  S  S  E.     +Q
|-19-21-19-21-19-21-19-21-21p19-----(19)--|
|-----------------------------------------|
|-----------------------------------------|
|-----------------------------------------|
|-----------------------------------------|
|-----------------------------------------|
|
|                                ~~
|  E     E     E     E     E     Q.
|-----------------------------------------|
|-----------------------------------------|
|-----------------------------------------|
|--------------------4--------------------|
|--2-----4-----5-----------2--------------|
|--------------------------------2--------|


 End Unison
          ~                  ~~             ~
                                                           |-3-|
  E E E E Q  E E   E E E E E Q.     E E E E Q  E E   Q  Q  E E E Q
|----------------|----------------|----------------|-----------------|
|----------------|----------------|----------------|-----------------|
|----------------|----------------|----------------|-4---------------|
|----------------|---------4-6----|----------------|----6--4---------|
|-----4----------|-4-5-6----------|-----4----------|---------6-4-----|
|-4-7---4-7--4-7-|-------4--------|-4-7---4-7--4---|-------------7---|


          ~                  ~~                                    ~~
  E E E E Q  E E   E E E E E Q.     Q  S S E E E S S E   E E E E E Q.
|----------------|----------------|--------------------|----------------|
|----------------|----------------|--------------------|----------------|
|----------------|----------------|-4------------------|----------------|
|----------------|---------4-6----|----6-4---6-6-4-----|----------------|
|-----4----------|-4-5-6----------|--------6-------6-4-|---4-5-6-2------|
|-4-7---4-7--4-7-|-------4--------|--------------------|-7---------2----|


               ~~                         ~~~
   E  E  E  E  Q   E  E    E  E  E  E  E  Q.
|-----------------------|----------------------|
|-----------------------|----------------------|
|-----------------------|----------------------|
|-----------------------|-------------16-18----|
|-------16--------------|-16-17-18-------------|
|-16-19----16-19--16-19-|----------16----------|
|
| Gtr IV
|              ~~                         ~~~
|  E  E  E  E  Q   E  E    E  E  E  E  E  Q.
|-----------------------|----------------------|
|-----------------------|----------------------|
|-----------------------|----------------------|
|-----------------------|--------------4--6----|
|--------4--------------|--4--5--6-------------|
|--4--7-----4--7---4--7-|-----------4----------|


               ~~
                                  |--3--|
   E  E  E  E  Q   E E    Q   Q   E  E  E  Q
|----------------------|-----------------------|
|----------------------|-----------------------|
|----------------------|-16--------------------|
|----------------------|-----18--16------------|
|-------16-------------|------------18-16------|
|-16-19----16-19--16---|------------------19---|
|
|              ~~
|                                 |--3--|
|  E  E  E  E  Q   E E    Q   Q   E  E  E  Q
|----------------------|-----------------------|
|----------------------|-----------------------|
|----------------------|--4--------------------|
|----------------------|------6---4------------|
|--------4-------------|-------------6--4------|
|--4--7-----4--7---4---|-------------------7---|


               ~~                         ~~~
   E  E  E  E  Q   E  E    E  E  E  E  E  Q.
|-----------------------|----------------------|
|-----------------------|----------------------|
|-----------------------|----------------------|
|-----------------------|-------------16-18----|
|-------16--------------|-16-17-18-------------|
|-16-19----16-19--16-19-|----------16----------|
|
|              ~~                         ~~~
|  E  E  E  E  Q   E  E    E  E  E  E  E  Q.
|-----------------------|----------------------|
|-----------------------|----------------------|
|-----------------------|----------------------|
|-----------------------|--------------4--6----|
|--------4--------------|--4--5--6-------------|
|--4--7-----4--7---4--7-|-----------4----------|


                                                ~~~
   Q   S  S  E  E  E  S  S  E    E  E  E  E  E  Q.
|-----------------------------|----------------------|
|-----------------------------|----------------------|
|-16--------------------------|----------------------|
|-----18-16----18-18-16-------|----------------------|
|-----------18----------18-16-|----16-17-18-14-------|
|-----------------------------|-19-------------14----|
|
|                                               ~~~
|  Q   S  S  E  E  E  S  S  E    E  E  E  E  E  Q.
|-----------------------------|----------------------|
|-----------------------------|----------------------|
|--4--------------------------|----------------------|
|------6--4-----6--6--4-------|----------------------|
|------------6-----------6--4-|-----4--5--6--2-------|
|-----------------------------|--7--------------2----|


  C#m
  Gtr III
  S S S S S  S S S  S S S S  S S S  S
|-------------------------------------|
|-------------------------------------|
|-8-9-8-6-9-11-9-8-------------8-9-11-|
|------------------11-9-8-9-11--------|
|-------------------------------------|
|-------------------------------------|
|
| Gtrs I, II
| Q       Q         H
|-------------------------------------|
|-------------------------------------|
|-6-------6---------6-----------------|
|-6-------6---------6-----------------|
|-4-------4---------4-----------------|
|-------------------------------------|


  S  S S S  S  S  S S  S  S S  S  S S  S  S
|-------------------------------------------|
|-------------------------------------------|
|-9-11-9-8-11-13-11-9---------------9-11-13-|
|---------------------13-11-9-11-13---------|
|-------------------------------------------|
|-------------------------------------------|
|
| H                    Q          Q
|-------------------------------------------|
|-------------------------------------------|
|-6--------------------6----------6---------|
|-6--------------------6----------6---------|
|-4--------------------4----------4---------|
|-------------------------------------------|


  E
   S  S  S S  S  S  S  S  S  S  S  S  S  S  S  S
|------------------------------------------------|
|------------12-15-12-11-------12-11-------14-11-|
|-11-13-11-9-------------13-11-------13-11-------|
|------------------------------------------------|
|------------------------------------------------|
|------------------------------------------------|
|
|  Q          Q           H
|------------------------------------------------|
|------------------------------------------------|
|------------------------------------------------|
|--2----------2-----------2----------------------|
|--2----------2-----------2----------------------|
|--0----------0-----------0----------------------|


   S  S  S  S  S  S  S  S  S  S  S  S  S  S  S  S
|----------------------11-12-14-12-11-16-18-16-14-|
|-12-11-------11-12-14----------------------------|
|-------13-11-------------------------------------|
|-------------------------------------------------|
|-------------------------------------------------|
|-------------------------------------------------|
|
|  H                       Q           Q
|-------------------------------------------------|
|-------------------------------------------------|
|-------------------------------------------------|
|--2-----------------------2-----------2----------|
|--2-----------------------2-----------2----------|
|--0-----------------------0-----------0----------|


   ~~~~~~~~~~~~~~~~~~~~~~~~~~~~~~~~~~~~~~~~~~~~~~~
   W                       +W
|-16--------------------|-(16)-------------------|
|-----------------------|------------------------|
|-----------------------|------------------------|
|-----------------------|------------------------|
|-----------------------|------------------------|
|-----------------------|------------------------|
|
|              ~~                           ~~~
|  E  E  E  E  Q   E  E     E   E  E  E  E  Q.
|-----------------------|------------------------|
|-----------------------|------------------------|
|-----------------------|------------------------|
|-----------------------|---------------16-18----|
|-------16--------------|--16--17-18-------------|
|-16-19----16-19--16-19-|------------16----------|
|
| Gtr IV
|              ~~                           ~~~
|  E  E  E  E  Q   E  E     E   E  E  E  E  Q.
|-----------------------|------------------------|
|-----------------------|------------------------|
|-----------------------|------------------------|
|-----------------------|----------------4--6----|
|--------4--------------|---4---5--6-------------|
|--4--7-----4--7---4--7-|-------------4----------|


 ~~~~~~~~~~~~~~~~~~~~~~~~~~~~
   +H.                   Q
|-(16)-----------------(16)\-------|
|----------------------------------|
|----------------------------------|
|----------------------------------|
|----------------------------------|
|----------------------------------|
|
|   Q    S  S  E  E  E   S    S  E
|----------------------------------|
|----------------------------------|
|--16------------------------------|
|-------18-16----18-18--16---------|
|-------------18-------------18-16-|
|----------------------------------|
|
|   Q    S  S  E  E  E   S    S  E
|----------------------------------|
|----------------------------------|
|---4------------------------------|
|--------6--4-----6--6---4---------|
|--------------6--------------6--4-|
|----------------------------------|


                         C#m
   W                     S S S S S  S S S  S S S S  S S S  S
|----------------------|-------------------------------------|
|----------------------|-------------------------------------|
|----------------------|-8-9-8-6-9-11-9-8-------------8-9-11-|
|----------------------|------------------11-9-8-9-11--------|
|----------------------|-------------------------------------|
|----------------------|-------------------------------------|
|
|                 ~~~
|  E  E  E  E  E  Q.     Q       Q         H
|----------------------|-------------------------------------|
|----------------------|-------------------------------------|
|----------------------|-6-------6---------6-----------------|
|----------13----------|-6-------6---------6-----------------|
|-14-16-17----14-------|-4-------4---------4-----------------|
|----------------14----|-------------------------------------|
|
|                 ~~~
|  E  E  E  E  E  Q.     W
|----------------------|-------------------------------------|
|----------------------|-------------------------------------|
|----------------------|-------------------------------------|
|-----------1----------|-------------------------------------|
|--2--4--5-----2-------|-------------------------------------|
|-----------------2----|-------------------------------------|


  S  S S S  S  S  S S  S  S S  S  S S  S  S
|-------------------------------------------|
|-------------------------------------------|
|-9-11-9-8-11-13-11-9---------------9-11-13-|
|---------------------13-11-9-11-13---------|
|-------------------------------------------|
|-------------------------------------------|
|
| H                    Q          Q
|-------------------------------------------|
|-------------------------------------------|
|-6--------------------6----------6---------|
|-6--------------------6----------6---------|
|-4--------------------4----------4---------|
|-------------------------------------------|


  E
   S  S  S S  S  S  S  S  S  S  S  S  S  S  S  S
|------------------------------------------------|
|------------12-15-12-11-------12-11-------14-11-|
|-11-13-11-9-------------13-11-------13-11-------|
|------------------------------------------------|
|------------------------------------------------|
|------------------------------------------------|
|
|  Q          Q           H
|------------------------------------------------|
|------------------------------------------------|
|------------------------------------------------|
|--2----------2-----------2----------------------|
|--2----------2-----------2----------------------|
|--0----------0-----------0----------------------|


   S  S  S  S  S  S  S  S  S  S  S  S  S  S  S  S
|----------------------11-12-14-12-11-16-18-16-14-|
|-12-11-------11-12-14----------------------------|
|-------13-11-------------------------------------|
|-------------------------------------------------|
|-------------------------------------------------|
|-------------------------------------------------|
|
|  H                       Q           Q
|-------------------------------------------------|
|-------------------------------------------------|
|-------------------------------------------------|
|--2-----------------------2-----------2----------|
|--2-----------------------2-----------2----------|
|--0-----------------------0-----------0----------|


  D#
 6/4
                                               |---3----|
   S   S  S  S  E  E  E  E  Q    a      +Q    +E    E   E
|-17--18-17-15----15---------------------------------------|
|--------------18----16---------18b20==(18)--(18)r(18)p16--|
|-----------------------15-14------------------------------|
|----------------------------------------------------------|
|----------------------------------------------------------|
|----------------------------------------------------------|
|
|  H.                       H.
|----------------------------------------------------------|
|----------------------------------------------------------|
|--8------------------------8------------------------------|
|--8------------------------8------------------------------|
|--6------------------------6------------------------------|
|----------------------------------------------------------|


  E#
        |--3--|  |--3--|  |--3---|  |--3--|  |--3--|
   Q    E  E  E  E  E  E  E   E  E  E  E  E  E  E  E
|---------------------15-20--17----------------------|
|-18---------------16-----------18-------18----------|
|---------------17-----------------17s15----15-14----|
|------15-17-19-----------------------------------15-|
|----------------------------------------------------|
|----------------------------------------------------|
|
|  H.                     H.
|----------------------------------------------------|
|----------------------------------------------------|
|----------------------------------------------------|
|--7----------------------7--------------------------|
|--8----------------------8--------------------------|
|----------------------------------------------------|


  D#/G
   |--3---|      |--3--|  |--3---|              |---3----|
   E   E  E  Q   E  E  E  E   E  E  Q   a      +E    E   E
|------------------------11--13-15-----17b19==(17)r(17)p15-|
|----------------------------------11----------------------|
|-12--14-15-----12-14-15-----------------------------------|
|-----------13---------------------------------------------|
|----------------------------------------------------------|
|----------------------------------------------------------|
|
|  H.                     H.
|----------------------------------------------------------|
|----------------------------------------------------------|
|----------------------------------------------------------|
|--5----------------------5--------------------------------|
|--6----------------------6--------------------------------|
|----------------------------------------------------------|


  A/C#
   |--3---|  |--3--|  |--3--|  |--3---|  |--3--|  |--3--|
   E   E  E  E  E  E  E  E  E  E   E  E  E  E  E  E  E  E
|-17--12----12--------------------------------------------||
|--------14----14-11-14-11--------------------------------||
|--------------------------12-14--12-10-------------------||
|---------------------------------------14-13-11-10-------||
|---------------------------------------------------13-12-||
|---------------------------------------------------------||
|
|  H.                          H.
|---------------------------------------------------------||
|---------------------------------------------------------||
|---------------------------------------------------------||
|--7---------------------------7--------------------------||
|--4---------------------------4--------------------------||
|---------------------------------------------------------||


   Bridge 4
    D
   3/4
    Gtr V
     Q   E Q  E     Q   Q  Q      Q   E Q  E     Q   Q  Q
||--------------|---0---------|--------------|---0---------|
||o--------6----|-------6-----|---------6----|-------6-----|
||-------7----7-|----------7--|-------7----7-|----------7--|
||---0----------|--(0)--------|--------------|-------------|
||o-------------|-------------|--------------|-------------|
||--------------|-------------|---7----------|--(7)--------|
|    H.            +H.            H.            +H.
|
|   Gtr III
|    H.            +H.            H.            +H.
||--------------|-------------|--------------|-------------|
||o--3----------|--(3)--------|--------------|-------------|
||---2----------|--(2)--------|--------------|-------------|
||---0----------|--(0)--------|--------------|-------------|
||o-------------|-------------|---2----------|--(2)--------|
||--------------|-------------|--------------|-------------|
|
|   Gtr IV
|    H.            +H.           +H.            +H.
||--------------|-------------|--------------|-------------|
||o-------------|-------------|--------------|-------------|
||--------------|-------------|--------------|-------------|
||--12----------|-(12)--------|-(12)---------|-(12)--------|
||o-------------|-------------|--------------|-------------|
||--------------|-------------|--------------|-------------|


  Q   E Q  E    Q   Q  Q    E  E E Q  E   E  E E Q  E
|------------|--0---------|--------0----|--------0----|
|-------6----|------6-----|------6----6-|------6----6-|
|-----7----7-|---------7--|----7--------|----7--------|
|------------|------------|-5-----------|-6-----------|
|------------|------------|-------------|-------------|
|-4----------|-(4)--------|-------------|-------------|
| H.           +H.          H.            H.
|
| H.           +H.          H.            H.
|------------|------------|-------------|-------------|
|------------|------------|-------------|-------------|
|------------|------------|-------------|-------------|
|------------|------------|-------------|-------------|
|------------|------------|-------------|-------------|
|-4----------|-(4)--------|-3-----------|-4-----------|
|
| W             W           W             W
|------------|------------|-------------|-------------|
|------------|------------|-------------|-------------|
|------------|------------|-------------|-------------|
|------------|------------|-------------|-------------|
|------------|------------|-------------|-------------|
|------------|------------|-------------|-------------|


  D
  Q   E Q  E    Q   Q  Q    Q   E Q  E    Q   Q  Q    Q   E Q  E    Q   Q  Q
|------------|--0---------|------------|--0---------|------------|--0---------|
|-------6----|------6-----|-------6----|------6-----|-------6----|------6-----|
|-----7----7-|---------7--|-----7----7-|---------7--|-----7----7-|---------7--|
|-0----------|-(0)--------|------------|------------|------------|------------|
|------------|------------|------------|------------|------------|------------|
|------------|------------|-7----------|-(7)--------|-6----------|-(6)--------|
| H.           +H.          H.           +H.          H.           +H.
|
| H.           +H.          H.           +H.          H.           +H.
|------------|------------|------------|------------|------------|------------|
|-3----------|-(3)--------|------------|------------|------------|------------|
|-2----------|-(2)--------|------------|------------|------------|------------|
|-0----------|-(0)--------|------------|------------|------------|------------|
|------------|------------|-2----------|-(2)--------|-1----------|-(1)--------|
|------------|------------|------------|------------|------------|------------|
|
| W             W           W             W           W             W
|------------|------------|------------|------------|------------|------------|
|------------|------------|------------|------------|------------|------------|
|------------|------------|------------|------------|------------|------------|
|------------|------------|------------|------------|------------|------------|
|------------|------------|------------|------------|------------|------------|
|------------|------------|------------|------------|------------|------------|


  1.                         2.
  Q   E Q  E    Q   Q  Q      Q   E Q     E   W
|------------|--0----------||---------------|-----------|
|-------6----|------6-----o||-------6-------|-----------|
|-----7----7-|---------7---||-----7---------|-----------|
|------------|-------------||---------------|-----------|
|------------|------------o||---------------|-----------|
|-0----------|-(0)---------||-0-------(0)-0-|-1---2--3--|
| H.           +H.            H       +E  E   Q   Q  Q
|
| H.           +H.            Q   E Q     E   Q   Q  Q
|------------|-------------||-------0-------|-----------|
|------------|------------o||---------------|-----------|
|------------|-------------||-----7-------7-|--------6--|
|------------|-------------||---------------|-----7-----|
|------------|------------o||---------------|-0---------|
|-0----------|-(0)---------||-0-------------|-----------|
|                             H.              H.
|
| W             W             H.              H.
|------------|-------------||---------------|-----------|
|------------|------------o||---------------|-----------|
|------------|-------------||---------------|-----------|
|------------|-------------||---------------|-----------|
|------------|------------o||---------------|-0---------|
|------------|-------------||-0-------------|-----------|


   Bridge 5
    D
    Q   E Q  E    Q   Q  Q    Q   E Q  E
||-------------|--0---------|------------|
||o-------7----|------7-----|-------7----|
||------7----7-|---------7--|-----7----7-|
||--0----------|-(0)--------|-6----------|
||o------------|------------|------------|
||-------------|------------|------------|
|   H.           +H.          H.
|
|   H.           +H.          H.
||-------------|------------|------------|
||o-3----------|-(3)--------|------------|
||--2----------|-(2)--------|-1----------|
||--0----------|-(0)--------|------------|
||o------------|------------|------------|
||-------------|------------|------------|


   Q   Q  Q    Q   E Q  E    Q   Q  Q
|--0---------|------------|--0----------|
|------7-----|-------7----|------7------|
|---------7--|-----7----7-|---------7---|
|-(6)--------|-5----------|-(5)---------|
|------------|------------|-------------|
|------------|------------|-------------|
| +H.          H.           +H.
|
| +H.          H.           +H.
|------------|------------|-------------|
|------------|------------|-------------|
|-(1)--------|-0----------|-(0)---------|
|------------|------------|-------------|
|------------|------------|-------------|
|------------|------------|-------------|


              1.             2.
  Gtr V
  Q   E Q  E    Q   Q  Q       Q   Q  Q
|------------|--0----------||--0---------|
|-------7----|------7-----o||------7-----|
|-----7----7-|---------7---||---------7--|
|------------|-------------||------------|
|------------|------------o||------------|
|-0----------|-(0)---------||-(0)--------|
| H.           +H.            +H.
|
| Gtr III
| H.           +H.            +H.
|------------|-------------||------------|
|------------|------------o||------------|
|------------|-------------||------------|
|------------|-------------||------------|
|-0----------|-(0)--------o||-(0)--------|
|------------|-------------||------------|


 Outro
  D
  Q   E Q  E    Q   Q  Q     Q   E Q  E    Q   Q  Q    Q   E Q  E    Q   Q  Q
|------------|--0---------|-------------|--0---------|------------|--0---------|
|-------7----|------7-----|--------7----|------7-----|-------7----|------7-----|
|-----7----7-|---------7--|------7----7-|---------7--|-----7----7-|---------7--|
|-0----------|-(0)--------|--6----------|-(6)--------|-5----------|-(5)--------|
|------------|------------|-------------|------------|------------|------------|
|------------|------------|-------------|------------|------------|------------|
| H.           +H.           H.           +H.          H.           +H.
|
| H.           +H.          +H.           +H.          W             W
|------------|------------|-------------|------------|------------|------------|
|-3----------|-(3)--------|-(3)---------|-(3)--------|------------|------------|
|-2----------|-(2)--------|-(2)---------|-(2)--------|------------|------------|
|-0----------|-(0)--------|-(0)---------|-(0)--------|------------|------------|
|------------|------------|-------------|------------|------------|------------|
|------------|------------|-------------|------------|------------|------------|


                                         H.=H
  Q   E Q  E    Q   Q  Q    Q   E Q  E    Q   Q  Q
|------------|--0---------|------------|--0---------|
|-------7----|------7-----|-------7----|------7-----|
|-----7----7-|---------7--|-----7----7-|---------7--|
|------------|------------|-0----------|-(0)--------|
|------------|------------|------------|------------|
|-0----------|-(0)--------|------------|------------|
  H.           +H.          H.           +H.


  Q   E Q  E    Q   Q  Q    Q   E Q  E    Q   Q  Q
|------------|--0---------|------------|--0-----------|
|-------7----|------7-----|-------7----|------7-------|
|-----7----7-|---------7--|-----7----7-|---------7----|
|-6----------|-(6)--------|-5----------|-(5)----------|
|------------|------------|------------|--------------|
|------------|------------|------------|--------------|
  H.           +H.          H.           +H.


                            D
  Q   E Q  E    Q   Q  Q     H.
|------------|--0---------|-^2-----*|
|-------7----|------7-----|-^3-----*|
|-----7----7-|---------7--|-^2-----*|
|------------|------------|-^0-----*|
|------------|------------|--------*|
|-0----------|-(0)--------|--------*|
  H.           +H.




--------------------------------------------------------------------------------


Duration Legend
---------------
W - whole; H - half; Q - quarter; E - 8th; S - 16th; T - 32nd; X - 64th; a - acciaccatura
+ - note tied to previous; . - note dotted; .. - note double dotted
Uncapitalized letters represent notes that are staccato (1/2 duration)
Irregular groupings are notated above the duration line
Duration letters will always appear directly above the note/fret number it represents the
duration for.  Duration letters with no fret number below them represent rests.  Multi-
bar rests are notated in the form Wxn, where n is the number of bars to rest for.  Low
melody durations appear below the staff

Tablature Legend
----------------
 h   - hammer-on
 p   - pull-off
 b   - bend
 pb  - pre-bend
 r   - bend release (if no number after the r, then release immediately)
 /\  - slide into or out of (from/to "nowhere")
 s   - legato slide
 S   - shift slide
 - natural harmonic
[n]  - artificial harmonic
n(n) - tapped harmonic
 ~   - vibrato
 tr  - trill
 T   - tap
 TP  - trem. picking
 PM  - palm muting
\n/  - tremolo bar dip; n = amount to dip
 \n  - tremolo bar down
 n/  - tremolo bar up
/n\  - tremolo bar inverted dip
 =   - hold bend; also acts as connecting device for hammers/pulls
 <> - volume swell (louder/softer)
 x   - on rhythm slash represents muted slash
 o   - on rhythm slash represents single note slash

Misc Legend
-----------
 |  - bar
||  - double bar
||o - repeat start
o|| - repeat end
*|  - double bar (ending)
 :  - bar (freetime)
 $  - Segno
 &  - Coda
Tempo markers -  = BPM(8/16=s8/s16), where s8 = swing 8ths, s16 = swing 16ths



            
            
Suggest correction
Creating personal tab
Creating personal tab
You can edit any tab online and save it as your Personal.

You can edit, replace or remove any tab part or add personal notes – all changes will be seen only by you.

Personal tabs can be accessed anytime from any device, even offline.
Learn more »
comments
print report bad tab
guest
You may want to rate the tab now too:
select rating
Wanna post a correction for this tab? Suggest correction