Oops, an error
Loading. Please wait.

Breaking All Illusions Bass Tab

version 1
version 1

Solo

Whole song

Interactive

1,305 views 15 this week
no commentswrite comment
1 2 3 4 5
please rate
add to favorites
launch autoscroll
font size
0
reset
guitar tuner
Autoscroll
slow
fast
+/-
esc
set tempo
stop
Help us to improve Ultimate-Guitar.com Take our survey!
×
Difficulty
intermediate
G |-----------12---------------|
D |--------14----12-14---------|
A |--0--12-------------12-0----|
E |----------------------------|


----------------------------------------------------|
--------------------------7-------------------------|
--2-----------------5-----------------7-----3--2----|
--------3--0--3-----------------0-------------------|


--------------------16------------------------------|
-----------------------17-14----------14------------|
--0-----0-----0--------------15-17----------0-------|
----------------------------------------------------|


--------4--5--7-------------------------------------|
--------------------------------7-------------------|
--0-----------------------5-----------------7-------|
--------------------3-----------------0-------------|


--------------5-----7-----------4-----12-9----------|
--7--5--3-----------------5-----------------10-9----|
----------------------------------------------------|
----------------------------------------------------|


-----------12---------------|
--------14----12-14---------|
--0--12-------------12-0----|
----------------------------|


----------------------------------------------------|
--------------------------7-------------------------|
--2-----------------5-----------------7-----3--2----|
--------3--0--3-----------------0-------------------|


--------------------16------------------------------|
-----------------------17-14----------14------------|
--0-----0-----0--------------15-17----------0-------|
----------------------------------------------------|


--------4--5--7-------------------------------------|
--------------------------------7-------------------|
--0-----------------------5-----------------7-------|
--------------------3-----------------0-------------|


--------------5-----7-----------4-----12-9----------|
--7--5--3-----------------5-----------------10-9----|
----------------------------------------------------|
----------------------------------------------------|


--9-------------------------------------------------|-------|
-----10---------------------------------------------|-------|
--------12-10-8-----10----7-----5L----5L------------|--5----|
----------------------------------------------------|-------|


----------------------------||
----------------------------||
--5--7--5-------------------||
-----------6--5--3----------||
Suggest correction new What's this?
You can suggest a correction to this tab. Community and Mods will review your correction and vote to approve or reject it.
comments
We did not receive enough feedback on this tab! Please rate:
print report bad tab
1 2 3 4 5
I want to post or [tab]
guest
You may want to rate the tab now too:
select rating
Please do not post tabs as comments. Select "correction" instead!