Oops, an error
Loading. Please wait.

Caught In A Web Tab

version 3
version 3

Whole song

4,351 views 3 this week
1 commentread comment
1 2 3 4 5
1 last vote to show rating
add to favorites
launch autoscroll
font size
0
reset
how to read this tab
guitar tuner
Autoscroll
slow
fast
+/-
esc
set tempo
stop
Help us to improve Ultimate-Guitar.com Take our survey!
×
Difficulty
intermediate
Tabbed by: MyGuitarSolo.com
Posted by: Iron Pete
E-mail: Bludragon5891@aol.com

This is not the most difficult DT song, but you still have to practice it a lot to get it right.

Tuning: Standard 7-String: B E A D G B E

Listen to record for exact rhythm

Intro:

E-----------------------|-------------|-------------|-------------------|
B-----------------------|-------------|-------------|-------------------|
G-----------------------|-------------|-------------|-------------------|
D-----------------------|-------------|-------------|-------------------|
A-----------------------|-------------|-------------|------X-X----------|
E-4---4--4--4--4---2-2-2|4-4-4---4-4-4|4--2-2-2----2|4---4-X-X-4---2-2-2|
B-0h2-2--2--2--2p0-0-0-0|2-2-0h2-2-2-2|2--0-0-0--5-0|0h2-2-X-X-2p0-0-0-0|

E----------------|-----------------|---------------|--------------|
B----------------|-----------------|---------------|--------------|
G----------------|-----------------|---------------|--------------|
D----------------|-----------------|---------------|--------------|
A-------------X-X|-----------------|----X-X--------|-----------X-X|
E-4--4--2---4-X-X|4---2--2--2-----2|4-4-X-X-4-2-2-2|4--4--2--4-X-X|
B-2--2--0h2-2-X-X|2p0-0--0--0--3--0|0-2-X-X-2-0-0-0|2--2--0--2-X-X|

E-----------------|-------------------|--------------|----------------|
B-----------------|-------------------|--------------|----------------|
G-----------------|-------------------|--------------|----------------|
D-----------------|-------------------|--------------|----------------|
A-----------------|-----X-X-----------|-----------X-X|----------------|
E-4--2--2--2-----2|2--4-X-X-4--2--2--2|4--4--2--4-X-X|4--2--2--2-----2|
B-2--0--0--0--5--0|0--2-X-X-2--0--0--0|2--2--0--2-X-X|2--0--0--0--3--0|

Pre-Verse:

This x4
E------------------|----------------------|
B------------------|----------------------|
G------------------|----------------------|
D------------------|----------------------|
A-2--4-----4--5----|----------------------|
E-2--4-----4--5----|----------------------|
B------X--X-----2-2|X--2--2--X--2--2--X--2|

Verse:

Play Pre-Verse x2 then this twice:
E------------------|----------------------|
B------------------|----------------------|
G------------------|----------------------|
D------------------|----------------------|
A-0--2----2--3-----|----------------------|
E-0--2----2--3-----|----------------------|
B-----X--X-----0--0|X--0--0--X--0--0--X--0|

Then first part of verse once

Then intro

Then first part of verse twice

Then second part of verse once

Then then first part of verse once

Pre-Chorus:
E-----------------------|---------------|----------------|----------------|
B-----------------------|---------------|----------------|----------------|
G-----------------------|---------------|----------------|----------------|
D-----------------------|---------------|----------------|----------------|
A-4--2------------------|---------------|4--2------------|----2--4--2-----|
E------4---2----0---4--2|0-------0--2--3|-----4--2---0---|3--4--------4--2|
B-----------------------|--0---2--------|----------2----2|----------------|

E----------------|----------------|-------------------|
B----------------|----------------|-------------------|
G----------------|----------------|-------------------|
D----------------|---------------2|-----5--3----------|
A----------------|--------4--2----|4--2------4--2-----|
E-0--4--2--0-----|0--2--3------4--|---------------3--1|
B------------0--2|----------------|-------------------|

Chorus:
Let right throughout
E-----------------|-----------------------------|-----------|
B-------------3---|-----------------------------|-----------|
G----------------4|----------------------3------|-------0---|
D-5------5--------|5---------------5-----------5|----------2|
A-5---------------|6-------6--------------------|3----3-----|
E-3---------------|6----------------------------|3----------|
B-----------------|4----------------------------|1----------|

E----------------------------------------|Repeat First Two|-------------|
B----------------------------------------|Measures--------|-------------|
G-7------7-------------------------------|of--------------|------------2|
D-8------8------------8-----10--11--10--8|Chorus----------|-------4-----|
A-8------8------------8-----10--11--10--8|----------------|5---5--------|
E-6------6-------8-10--------------------|----------------|5------------|
B----------------------------------------|----------------|3------------|

                  Post-Chorus:
E-----------|----|-------------------|-----------------|-------------------|
B-----------|----|-------------------|-----------------|-------------------|
G-----------|----|-------------------|-----------------|-------------------|
D-----------|----|-------------------|-----------------|-------------------|
A-3---------|----|-------------------|-----------------|-------------------|
E-3---------|----|-------------------|-----------------|-------------------|
B-1---------|15/-|2--2--0--2--0--2--2|0--2--0--2--2-0-5|2--2--0--2--0--2--2|

E--------------------|----------------------------------|
B--------------------|----------------------------------|
G--------------------|----------------------------------|
D--------------------|-------------------------------X-X|
A--------------------|-------------------------------X-X|
E--------------------|--4-X-X-4-----------4--4-------X-X|
B-0--2--0--2--2--0--3|0h2-X-X-2--0--0--0--2--2--0--5-X-X|

Verse 2:
Let ring-------------------------------------------------------------|
E------------|---------|---------|-------------|---------|-----------|
B------------|---------|---------|-------------|---------|-----------|
G-----------8|--------6|--------4|-------------|--------6|------2----|
D-4----6----6|4---6---6|4---6---6|4---6---7---6|2---4---4|2--4--4---4|
A-4----4----4|4---4---4|4---4---4|4---4---4---4|2---2---2|2--2--2----|
E------------|---------|---------|-------------|---------|-----------|
B------------|---------|---------|-------------|---------|-----------|

E-------------------------------------|------------------------------------|
B-------------------------------------|------------------------------------|
G-------------------------------------|------------------------------------|
D------X-X----------------------------|-----X-X----------------------------|
A------X-X----------------------------|-----X-X----------------------------|
E----4-X-X-4-----2--2--4--4-----------|---4-X-X--4-----2--2--4--4----------|
B-0--2-X-X-2--0--0--0--2--2--0--5--X-X|0--2-X-X--2--0--0--0--2--2--0--3-X-X|

This measure x4:                          This measure twice:
E----------------------------------------|-------------------------------|
B----------------------------------------|-------------------------------|
G----------------------------------------|-------------------------------|
D----------------------------------------|-------------------------------|
A-2--4--4--4--2--4--4---------4---4--2---|0--2--2--2--0--2--2-----2-2-0--|
E---------------------------------------4|------------------------------2|
B----------------------2----2------------|--------------------0--0-------|
^This measure twice^

Then repeat chorus and post-chorus

Bridge:
E------------------------------|-----------------------------|
B------------------------------|-----------------------------|
G------------------------------|-----------------------------|
D------------------------------|-----------------------------|
A------------------------------|-----------------------------|
E--------3-2---------5-4-3-2---|4-5-----5-4-4-4---4-4---4-4-4|
B-2-3-4-5----5-4-3-2--------5-4|2-3-X-X-3-2-2-2-X-2-2-X-2-2-2|

E------------------------------|-----------------------------|
B------------------------------|-----------------------------|
G------------------------------|-----------------------------|
D------------------------------|-----------------------------|
A------------------------------|-----------------------------|
E-1-2-1----------4-3-2---2-1-0-|4-5-----5-4-4-4---4-4---4-4-4|
B-------5-4-3-2-3-----2-1-----0|2-3-X-X-3-2-2-2-X-2-2-X-2-2-2|

E----------------------------|----------------------------|
B----------------------------|----------------------------|
G----------------------------|----------------------------|
D----------------------------|----------------------------|
A----------------------------|----------------------------|
E--------3-2-------5-4-3-2---|1-2-1---------4-3-2---2-1-0-|
B-2-3-4-5---5-4-3-2-------5-4|-----5-4-3-2-3-----2-1-----0|

E--------------------------|--------------|----------------|
B--------------------------|--------------|----------------|
G--------------------------|--------------|----------------|
D--------------------------|-------------2|---------------4|
A------------------------3-|4-3---6-5-3---|6-5-----8-7-5---|
E----------3-2-5-4---6-5---|---6-5--------|---8-7-6--------|
B-1-2-3-5-4-------3-2---4-5|-----------5--|--------------7-|

E-------------------------|------------------------|-------------|
B-------------------------|------------------------|-------------|
G-------------------------|------------------------|-------------|
D---------------5-4-------|7-6-5-4---3-4-3---------|6-5-4---4-3-2|
A--------4-5-6-7---7-6-5-4|-------7-6-----7-6-5-4-5|-----4-3-----|
E-4-5-6-7-----------------|------------------------|-------------|
B-------------------------|------------------------|-------------|

E-----------------------------|----------------|-----------------|
B-----------------------------|---------------5|----------------7|
G-----------------------------|6-5-----8-7-5---|8-7------10-9-7--|
D---------------------------5-|---8-7-6--------|---10-9-8--------|
A------------5-4-7-6---8-7----|-------------7--|---------------9-|
E-2-3-4-5-7-6-------5-4---6--7|----------------|-----------------|
B-----------------------------|----------------|-----------------|

Guitar Solo:
This measure x2        This measure x2  
E---------------------|-----------9----------|---------|
B-----------11-9------|12-11-9------12-11-9--|12-11-9--|
G-12-11-8--9----11-9--|-------11-9---------11|-------11|
D--------11---------10|----------------------|---------|
A---------------------|----------------------|---------|
E---------------------|----------------------|---------|
B---------------------|----------------------|---------|

This measure x2
E--------------12----------|
B-15-14-12-------15-14-12--|
G---------14-12----------14|
D--------------------------|
A--------------------------|
E--------------------------|
B--------------------------|

This measure x2
E-----------------------------------------------------------------|
B-17-18-17-15-----17-18-17-15-----20-15-20-15-----20-15-20-15-----|
G------------17-15-----------17-15-----------17-15-----------17-15|
D-----------------------------------------------------------------|
A-----------------------------------------------------------------|
E-----------------------------------------------------------------|
B-----------------------------------------------------------------|

This measure x2
E-17-18-17-15-----17-18-17-15-----20-15-20-15-----20-15-20-15-----|
B------------18-15-----------18-15--------------------------------|
G--------------------------------------------17-15-----------17-15|
D-----------------------------------------------------------------|
A-----------------------------------------------------------------|
E-----------------------------------------------------------------|
B-----------------------------------------------------------------|
                                                               Let ring
E-19-21-19-17-------------------------------------------------|--------|
B------------19-17--------------------------------------------|--------|
G-----------------16-18-16-14---------------------------------|--------|
D----------------------------16-14----------------------------|--------|
A---------------------------------14-16-14-12-----------------|--------|
E--------------------------------------------14-12-7-9-7-5----|4-------|
B----------------------------------------------------------7-5|2-------|

Repeat these two measures x4  Repeat these two x2
E---------|-----------------|---------|-----------------|
B---------|-----------------|---------|-----------------|
G---------|-----------------|---------|-----------------|
D-REST----|-----------------|REST-----|-----------------|
A---------|-----------------|---------|-----------------|
E-----4--4|--4--4---4--4---4|-----2--2|--2--2---2--2---2|
B-----2--2|X-2--2-X-2--2-X-2|-----0--0|X-0--0-X-0--0-X-0|
^Repeat these measures x2^

Repeat verse 2

Repeat chorus twice

Play post-chorus twice

E---------------|
B---------------|
G---------------|
D---------------|
A---------------|
E-4--2--2-4--4-4|
B-2--0--0-2--2-2|

FIN
Suggest correction
Give kudos to tab author, rate the tab!
1 2 3 4 5
comments
print report bad tab
1 comment total.
0 reply
SORocker5678 10 Feb 03, 2008 11:13 AM

good, clear tab. excellent work.

guest
You may want to rate the tab now too:
select rating
Wanna post a correction for this tab? Suggest correction