Oops, an error
Loading. Please wait.

Constant Motion bass

version 1
version 1

Whole song

16,620 views 1 this week
14 commentsread comments
1 2 3 4 5
x 7
add to favorites
×
Save as Personal and add changes to this tab that will be seen only by you. Learn more ›
×
You can save this tab as Personal to edit and correct it or add notes. All changes will be seen only by you. Learn more »
launch autoscroll
font size
0
reset
guitar tuner
backing track
0:00
0:00
edit
Autoscroll
slow
fast
+/-
esc
set tempo
stop
Author
Difficulty
Dream Theater - Constant Motion
Tabbed by: EthantheBassist
e-mail: ethanthebassist@sbcglobal.net
Tuning: E,A,D,G
 
p=pull-off
h=hammer-on
hold=let the note fade out



Intro 
G|---------------------|-----------------------|
D|---------------------|-----------------5-----|
A|-----7-5-7-5-0-8-7---|-----7-5-7-5-0-8---7---|
E|-0-5---------------6-|-0-5-----------------6-|

G|---------------------|-----------------------------|
D|---------------------|-----------------5-----------|
A|-----7-5-7-5-0-8-7---|-----7-5-7-5-0-8---7---------|
E|-0-5---------------6-|-0-5-----------------6-5-3-0-|

G|---------------------|-----------------------|
D|---------------------|-----------------5-----|
A|-----7-5-7-5-0-8-7---|-----7-5-7-5-0-8---7---|
E|-0-5---------------6-|-0-5-----------------6-|

G|---------------------|------------------------------------|
D|---------------------|-----------------5------------------|
A|-----7-5-7-5-0-8-7---|-----7-5-7-5-0-8---7----------------|
E|-0-5---------------6-|-0-5-----------------6-5-3-0-5-3-1-0|

Verse 1 
G|-----------------------|--------------------------|
D|-----------------------|--------------------------|
A|-----------------------|--------------------------|
E|-0-5-7-5-7-5-0-8-7-5-1-|-0-5-7-5-7-5-0-8-10-7-3-0-|

G|-----------------------|--------------------------------|
D|-----------------------|--------------------------------|
A|-----------------------|--------------------------------|
E|-0-5-7-5-7-5-0-8-7-5-1-|-0-5-7-5-7-5-0-8-10-7-0-6-8-5-0-|

G|-----------------------|--------------------------|
D|-----------------------|--------------------------|
A|-----------------------|--------------------------|
E|-0-5-7-5-7-5-0-8-7-5-1-|-0-5-7-5-7-5-0-8-10-7-3-0-|

G|-----------------------|--------------------------------------|------|
D|-----------------------|--------------------------------------|------|
A|-----------------------|--------------------------------------|------|
E|-0-5-7-5-7-5-0-8-7-5-1-|-0-5-7-5-7-5-0-8-10-7-8-5-7-3-5-0hold-|-12p1-|

Chorus 1 
G|---------------------------|------------------------------------|
D|---------------------------|------------------------------------|
A|---------------------------|------------------------------------|
E|-12p1-0-0000-0000-8-10-7-0-|-0-8p7-8p7-8p7-00-8p7-5h7-0-8p7-8p7-|

G|------------|---------------------------------------------------|
D|------------|---------------------------------------------------|
A|------------|---------------------------------------------------|
E|-0-8-10-7-0-|-0-8p7-8p7-8p7-00-8p7-5h7-0-8p7-8p7-8p7-0-8-10-7-0-|

G|-------------------------------------------------------|
D|-------------------------------------------------------|
A|-------------------------------------------------------|
E|-0-8p7-8p7-8p7-00-8p7-5h7-0-8p7-8p7-8-10-7-8-5-7-3-5-0-|

G|---------------------------------------------------|
D|---------------------------------------------------|
A|---------------------------------------------------|
E|-0-8p7-8p7-8p7-00-8p7-5h7-0-8p7-8p7-8p7-0-8-10-7-0-|

G|-------------------------------------------------------|
D|-------------------------------------------------------|
A|-------------------------------------------------------|
E|-0-8p7-8p7-8p7-00-8p7-5h7-0-8p7-8p7-8-10-7-8-5-7-3-5-0-|

Riff A   
G|-----------------|---------------------|
D|-----------------|---------------------|
A|-2-0-2-2-3-2-0---|---0-2-0-2-2-3-2-0---|
E|---------------2-|-2-----------------2-|

G|---------------------|-----------------------------------|
D|---------------------|-----------------------------------|
A|---0-2-0-2-2-3-2-0---|---0-2-0-2-7-10-9-6-10-9----10-9---|
E|-2-----------------2-|-2-----------------------10------8-|

Chorus 2 (higher)
G|---------------------------------------------------|
D|---------------------------------------------------|
A|-0-8p7-8p7-8p7-00-8p7-5h7-0-8p7-8p7-8p7-0-8-10-7-0-|
E|---------------------------------------------------|

G|-------------------------------------------------------|
D|-------------------------------------------------------|
A|-0-8p7-8p7-8p7-00-8p7-5h7-0-8p7-8p7-8-10-7-8-5-7-3-5-0-|
E|-------------------------------------------------------|

Riff B
G|--------------------------------------------------------------|
D|--------------------------------------------------------------|
A|-9999-9p7-77-7h9-99-10-12-12-12-12-12p10-10-10-10h12-12-12-13-|
E|--------------------------------------------------------------|

G|--------------------------------------------------------------|
D|--------------------------------------------------------------|
A|-9999-9p7-77-7h9-99-10-12-12-12-12-12p10-10-10-10h12-12-12-13-|
E|--------------------------------------------------------------|

G|-------------------------------------------------------------------------|
D|-------------------------------------------------------------------------|
A|-9999-9p7-77-7h9-99-10-12-12-12-12-12p10-10-10-10h12-12-12-14-14-14-14-14|
E|-------------------------------------------------------------------------|

G|-------------------------|
D|-------------------------|
A|-12-12-12-12-12-5555-666-|
E|-------------------------|

G|-------------------------------------------------------------------------|
D|-------------------------------------------------------------------------|
A|-9999-9p7-77-7h9-99-10-12-12-12-12-12p10-10-10-10h12-12-12-14-14-14-14-14|
E|-------------------------------------------------------------------------|

G|----------------------|
D|----------------------|
A|-12-12-12-6-6-6-5-5-5-|
E|----------------------|

Chorus 3 (lower)
G|---------------------------------------------------|
D|---------------------------------------------------|
A|---------------------------------------------------|
E|-0-8p7-8p7-8p7-00-8p7-5h7-0-8p7-8p7-8p7-0-8-10-7-0-|

G|-------------------------------------------------------|
D|-------------------------------------------------------|
A|-------------------------------------------------------|
E|-0-8p7-8p7-8p7-00-8p7-5h7-0-8p7-8p7-8-10-7-8-5-7-3-5-0-|

Riff C
G|---------------------------------|--------------------------------------|
D|---------------------------------|--------------------------------------|
A|---------------------------------|--------------------------------------|
E|-0000-00-0000-00-0000-0-8-10-7-0-|-0000-00-0000-00-0000-0-8-10-10-77-00-|

G|---------------------------------|--------------------------------------|
D|---------------------------------|--------------------------------------|
A|---------------------------------|--------------------------------------|
E|-0000-00-0000-00-0000-0-8-10-7-0-|-0000-00-0000-00-0000-0-8-10-10-77-00-|

Riff D
G|-----------------|-----------------|-------------------|
D|-----------------|-----------------|-------------------|
A|-----------------|-----------------|-------------------|
E|-777777-66-7-777-|-777777-66-7-777-|-777777-66-7-777-8-|

G|-----------------|-----------------|-------------------|
D|-----------------|-----------------|-------------------|
A|-----------------|-----------------|-------------------|
E|-777777-66-7-777-|-777777-66-7-777-|-777777-66-7-777-8-|

Riff E
G|---------------------------------|--------------------------------------|
D|---------------------------------|--------------------------------------|
A|---------------------------------|--------------------------------------|
E|-0000-00-0000-00-0000-0-8-10-7-0-|-0000-00-0000-00-0000-0-8-10-10-77-00-|

Riff F
G|--------------------------------------------------------------|
D|--------------------------------------------------------------|
A|-9999-9p7-77-7h9-99-10-12-12-12-12-12p10-10-10-10h12-12-12-13-|
E|--------------------------------------------------------------|

G|--------------------------------------------------------------|
D|--------------------------------------------------------------|
A|-9999-9p7-77-7h9-99-10-12-12-12-12-12p10-10-10-10h12-12-12-13-|
E|--------------------------------------------------------------|

G|-------------------------------------------------------------------------|
D|-------------------------------------------------------------------------|
A|-9999-9p7-77-7h9-99-10-12-12-12-12-12p10-10-10-10h12-12-12-14-14-14-14-14|
E|-------------------------------------------------------------------------|

G|-------------------------|
D|-------------------------|
A|-12-12-12-12-12-5555-666-|
E|-------------------------|

G|-------------------------------------------------------------------------|
D|-------------------------------------------------------------------------|
A|-9999-9p7-77-7h9-99-10-12-12-12-12-12p10-10-10-10h12-12-12-14-14-14-14-14|
E|-------------------------------------------------------------------------|

G|----------------------|
D|----------------------|
A|-12-12-12-6-6-6-5-5-5-|
E|----------------------|

Quiet...
G|-----------------------------------|
D|-----------------------------------|
A|-----------------------------------|
E|-0-2-2-2-3-2-2-2-3-2-0-2-2h555h777-|

G|-------------------------------------------------|
D|-------------------------------------------------|
A|-------------------------------------------------|
E|-0-2-2-2-3-2-2-2-3-2-0-2-2-777h10-10-10h12-12-12-|

G|-----------------------------------|
D|-----------------------------------|
A|-----------------------------------|
E|-0-2-2-2-3-2-2-2-3-2-0-2-2h555h777-|

G|-------------------------------------------------|
D|-------------------------------------------------|
A|-------------------------------------------------|
E|-0-2-2-2-3-2-2-2-3-2-0-2-2-777h10-10-10h12-12-12-|

Guitar Solo Pt.1(bass is really fast)
G|----------------------------|
D|----------------------------|
A|-99-7-9-7-10-10-9-7-9-5-7-4-|
E|----------------------------|

G|--------------------------|
D|--------------------------|
A|-99-7-9-7-10-10-9-7-9-5h7-|
E|--------------------------|

G|----------------------------|
D|----------------------------|
A|-99-7-9-7-10-10-9-7-9-5-7-4-|
E|----------------------------|

G|--------------------------|
D|--------------------------|
A|-99-7-9-7-10-10-9-7-9-5h7-|
E|--------------------------|

G|----------------------------|
D|----------------------------|
A|-99-7-9-7-10-10-9-7-9-5-7-4-|
E|----------------------------|

G|--------------------------|
D|--------------------------|
A|-99-7-9-7-10-10-9-7-9-5h7-|
E|--------------------------|

G|----------------------------|
D|----------------------------|
A|-99-7-9-7-10-10-9-7-9-5-7-4-|
E|----------------------------|

G|--------------------------|
D|--------------------------|
A|-99-7-9-7-10-10-9-7-9-5h7-|
E|--------------------------|

G|----------------------------|
D|----------------------------|
A|-99-7-9-7-10-10-9-7-9-5-7-4-|
E|----------------------------|

G|--------------------------|
D|--------------------------|
A|-99-7-9-7-10-10-9-7-9-5h7-|
E|--------------------------|

G|----------------------------|
D|----------------------------|
A|-99-7-9-7-10-10-9-7-9-5-7-4-|
E|----------------------------|

G|--------------------------|
D|--------------------------|
A|-99-7-9-7-10-10-9-7-9-5h7-|
E|--------------------------|

G|----------------------------|
D|----------------------------|
A|-99-7-9-7-10-10-9-7-9-5-7-4-|
E|----------------------------|

G|--------------------------|
D|--------------------------|
A|-99-7-9-7-10-10-9-7-9-5h7-|
E|--------------------------|

G|----------------------------|
D|----------------------------|
A|-99-7-9-7-10-10-9-7-9-5-7-4-|
E|----------------------------|

G|--------------------------|
D|--------------------------|
A|-99-7-9-7-10-10-9-7-9-5h7-|
E|--------------------------|

G|----------------------------|
D|----------------------------|
A|-99-7-9-7-10-10-9-7-9-5-7-4-|
E|----------------------------|

G|--------------------------|
D|--------------------------|
A|-99-7-9-7-10-10-9-7-9-5h7-|
E|--------------------------|

G|----------------------------|
D|----------------------------|
A|-99-7-9-7-10-10-9-7-9-5-7-4-|
E|----------------------------|

G|--------------------------|
D|--------------------------|
A|-99-7-9-7-10-10-9-7-9-5h7-|
E|--------------------------|

Guitar Solo Pt.2
G|--------------11-12-11-9-11-7-9-|
D|--------------------------------|
A|-9-7-9-7-10-9-------------------|
E|--------------------------------|

G|----------------12-|
D|-------------------|
A|-9-7-9-7-10-9-9----|
E|-------------------|

G|--------------11-12-11-9-11-7-9-|
D|--------------------------------|
A|-9-7-9-7-10-9-------------------|
E|--------------------------------|

G|------------------------------------|
D|------------------------------------|
A|-9-7-9-7-10-9-10-777-9-777-10-777-9-|
E|------------------------------------|

Chorus 4 (lower)
G|---------------------------------------------------|
D|---------------------------------------------------|
A|---------------------------------------------------|
E|-0-8p7-8p7-8p7-00-8p7-5h7-0-8p7-8p7-8p7-0-8-10-7-0-|

G|-------------------------------------------------------|
D|-------------------------------------------------------|
A|-------------------------------------------------------|
E|-0-8p7-8p7-8p7-00-8p7-5h7-0-8p7-8p7-8-10-7-8-5-7-3-5-0-|

Chorus 4 (higher)
G|---------------------------------------------------|
D|---------------------------------------------------|
A|-0-8p7-8p7-8p7-00-8p7-5h7-0-8p7-8p7-8p7-0-8-10-7-0-|
E|---------------------------------------------------|

G|-------------------------------------------------------|
D|-------------------------------------------------------|
A|-0-8p7-8p7-8p7-00-8p7-5h7-0-8p7-8p7-8-10-7-8-5-7-3-5-0-|
E|-------------------------------------------------------|

Riff G
G|---------------------------------|
D|---------------------------------|
A|---------------------------------|
E|-0000-00-0000-00-0000-0-8-10-7-0-|
                                         
G|-------------------------------------------------------|
D|-------------------------------------------------------|
A|-------------------------------------------------------|
E|-0-8p7-8p7-8p7-00-8p7-5h7-0-8p7-8p7-8-10-7-8-5-7-3-5-0-|

Riff H
G|--------------------------------------------------------------|
D|--------------------------------------------------------------|
A|-9999-9p7-77-7h9-99-10-12-12-12-12-12p10-10-10-10h12-12-12-13-|
E|--------------------------------------------------------------|

G|--------------------------------------------------------------|
D|--------------------------------------------------------------|
A|-9999-9p7-77-7h9-99-10-12-12-12-12-12p10-10-10-10h12-12-12-13-|
E|--------------------------------------------------------------|

G|-------------------------------------------------------------------------|
D|-------------------------------------------------------------------------|
A|-9999-9p7-77-7h9-99-10-12-12-12-12-12p10-10-10-10h12-12-12-14-14-14-14-14|
E|-------------------------------------------------------------------------|

G|-------------------------|
D|-------------------------|
A|-12-12-12-12-12-5555-666-|
E|-------------------------|

G|-------------------------------------------------------------------------|
D|-------------------------------------------------------------------------|
A|-9999-9p7-77-7h9-99-10-12-12-12-12-12p10-10-10-10h12-12-12-14-14-14-14-14|
E|-------------------------------------------------------------------------|

G|-------------------------|
D|-------------------------|
A|-12-12-12-12-12-5555-666-|
E|-------------------------|

G|-------------------------------------------------------------------------|
D|-------------------------------------------------------------------------|
A|-9999-9p7-77-7h9-99-10-12-12-12-12-12p10-10-10-10h12-12-12-14-14-14-14-14|
E|-------------------------------------------------------------------------|

G|-------------------------|
D|-------------------------|
A|-12-12-12-12-12-5555-666-|
E|-------------------------|

G|-------------------------------------------------------------------------|
D|-------------------------------------------------------------------------|
A|-9999-9p7-77-7h9-99-10-12-12-12-12-12p10-10-10-10h12-12-12-14-14-14-14-14|
E|-------------------------------------------------------------------------|

G|----------------------|
D|----------------------|
A|-12-12-12-6-6-6-5-5-5-|
E|----------------------|

Ending
G|---------------------|-----------------------|
D|---------------------|-----------------5-----|
A|-----7-5-7-5-0-8-7---|-----7-5-7-5-0-8---7---|
E|-0-5---------------6-|-0-5-----------------6-|

G|---------------------|-----------------------------|
D|---------------------|-----------------5-----------|
A|-----7-5-7-5-0-8-7---|-----7-5-7-5-0-8---7---------|
E|-0-5---------------6-|-0-5-----------------6-5-3-0-|

G|---------------------|-----------------------|
D|---------------------|-----------------5-----|
A|-----7-5-7-5-0-8-7---|-----7-5-7-5-0-8---7---|
E|-0-5---------------6-|-0-5-----------------6-|

G|---------------------|------------------------------------|
D|---------------------|-----------------5------------------|
A|-----7-5-7-5-0-8-7---|-----7-5-7-5-0-8---7----------------|
E|-0-5---------------6-|-0-5-----------------6-5-3-0-5-3-1-0|

            
            
Suggest correction
Creating personal tab
Creating personal tab
You can edit any tab online and save it as your Personal.

You can edit, replace or remove any tab part or add personal notes – all changes will be seen only by you.

Personal tabs can be accessed anytime from any device, even offline.
Learn more »
comments
print report bad tab
14 comments total. Showing first comments.
-1 reply
dj888 10 Nov 23, 2007 08:51 AM

First of all, it's played on a 5-string bass. Second of all, it hardly matches the real thing, and a 12 pull off to 1?
Dude, re-write this tab man.

-2 reply
beefofjesusbass 10 Nov 25, 2007 04:43 AM

its played on a 6 string

+1 reply
Bionic Fog 532 Nov 27, 2007 05:54 AM

No it's a 5-string. Watch the documentary.

guest
You may want to rate the tab now too:
select rating
Wanna post a correction for this tab? Suggest correction