Oops, an error
Loading. Please wait.

Constant Motion Tab

version 2
version 2

Solo

Whole song

4,987 views 1 this week
no commentswrite comment
1 2 3 4 5
please rate
add to favorites
launch autoscroll
font size
0
reset
how to read this tab
guitar tuner
Autoscroll
slow
fast
+/-
esc
set tempo
stop
Help us to improve Ultimate-Guitar.com Take our survey!
×
Contributor
Difficulty
advanced
Transcribed by sam hunt
enjoy =]
 

Gtr I (E A D G B E) - 'Untitled'


  Q=170
 4/4
  Gtr I
               ~~~~~~~~~~~~~~~
     |3|                   |-3--|
  Q  Q E +Q   +Q     +Q   +E  E E E E  E  S S
|------------------|--------------------------|
|------------------|--------------------------|
|------6-(6)--(6)--|-(6)--(6)-4-6-6S7-(7)S6-4-|
|-4--5-------------|--------------------------|
|------------------|--------------------------|
|------------------|--------------------------|


                 ~                ~~~
  |3-|   |--3--|
  Q  E   E   E E Q  +E  S S   Q   H.
|---------------------------|-----------|
|---------------------------|-----------|
|-6--8b9-6b7-4--------------|-----------|
|--------------5-4--(4)-5-4S|=2--<2>----|
|---------------------------|-----------|
|---------------------------|-----------|


                          ~~~~~~~~~~~~~~~
                                            |-3--|
  Q.   E +E  E +E  E   S  E.   +Q    +Q    +E  E E
|--------------------|-----------------------------|
|--------------------|-----------------------------|
|------6-(6)-7-(7)-9-|-9S11---(11)--(11)--(11)-9p7-|
|--------------------|-----------------------------|
|--------------------|-----------------------------|
|--------------------|-----------------------------|


         ~~~~            PM------------|    ~~~~~
  E  E  +H.         +E   S  S  S  S  S  S   H
|----------------|---------------------------------|
|----------------|---------------------------------|
|-9S11-(11)------|-(11)-11-11-11-11-11-11-<11>\----|
|----------------|---------------------------------|
|----------------|---------------------------------|
|----------------|---------------------------------|


                                     ~~
  |---3---|                                 |----3-----|
  Q   Q   Q   S  E.  +S   S  S  S    H     +Q      Q   q
|---------------------------------|-----------------------|
|------------11-12--(12)-11-------|-14----(14)\--/12--14--|
|----11--12-----------------12-11-|-----------------------|
|---------------------------------|-----------------------|
|---------------------------------|-----------------------|
|---------------------------------|-----------------------|


                                            ~~
   S  E.    Q   +Q    +E   S     S    E  E  Q  Q. E
|----------------------------------|----------------|
|-14-15b17-15--(15)--(15)-14b16-12-|-12-14-14-14\---|
|----------------------------------|----------------|
|----------------------------------|----------------|
|----------------------------------|----------------|
|----------------------------------|----------------|


  E  S  S  E.  S  S  S  E   +Q      +E   S  S  S  S  S  S  S  S  S S  S S  S  S
|------13-14--13----13-----------|---------13-14-13----13-----------------------|
|---15-----------15----14--(14)--|-(14)-15----------15----14-15-14-0-12-0-11-12-|
|--------------------------------|----------------------------------------------|
|--------------------------------|----------------------------------------------|
|--------------------------------|----------------------------------------------|
|--------------------------------|----------------------------------------------|


   S S S S S S S S S S S S S S S S
|----------------------------------|
|-11-0-8-0-7-8-7-0-5-0-3-5-3-0-2-0-|
|----------------------------------|
|----------------------------------|
|----------------------------------|
|----------------------------------|


  |-3-| |-3-| |-3-| |-3-| |-3-| |-3-| |-3-| |-3-|            |---3----|
  S S S S S S S S S S S S S S S S S S S S S S S S   E. S Q  +E  S S S S E. S
|-------------------------------------------------|---------------------------|
|-7-5-0-5-3-0-3-2-0-5-3-0-3-2-0-3-2-0-3-2-0-------|---------------------------|
|-------------------------------------------4-3-0-|-3--4-6--(6)-4-3-----------|
|-------------------------------------------------|-----------------5-4-2--4--|
|-------------------------------------------------|---------------------------|
|-------------------------------------------------|---------------------------|


  ~                             ~
      |--5:3---|        |-3-|
  Q  +S  S S S S E. E E S S S   Q  +E  S S S S S S S S S S
|-----------------------------|-----------------------------|
|-----------------------------|-----------------------------|
|-----------------------------|--------------------------4--|
|-5--(5)p4p2------------------|----------------------4-5----|
|------------5p4-1--2-4-2-1---|------------2-4-5-4-5--------|
|---------------------------3-|-2--(2)-2-3------------------|


                                                    ~
              |-3-|
  S S S S S S S S S S S  S  S  S S S S   Q   E  S S H
|-------------7-----7h9h10-12p10p9p7---|-----------------|
|---------7h8---7h8------------------8-|-7--(7)-8-7------|
|-6S7p6h7------------------------------|------------9----|
|--------------------------------------|-----------------|
|--------------------------------------|-----------------|
|--------------------------------------|-----------------|


                                          ~~~         ~~
                                                          |--3--|
  +E   E  E  E  S  S  S  S  S  S  S  S    Q.    S  S  Q   E  E  E
|--------------------------------------|--------------------------|
|-----------11-14p11----------------11-|-14----15-14-12--14-15-17-|
|-(9)-11-12----------12----------12----|--------------------------|
|-----------------------14-11h14-------|--------------------------|
|--------------------------------------|--------------------------|
|--------------------------------------|--------------------------|


   ~~~~~
   H.         +Q       S S  S  S  S  S  S  S  S S  S S  S  S  S  S
|-------------------|-14-9----------------------9-14-9-------------|
|-19b21------(19)\--|------12-11----------11-12--------12-11-------|
|-------------------|------------12-11-12--------------------12-11-|
|-------------------|----------------------------------------------|
|-------------------|----------------------------------------------|
|-------------------|----------------------------------------------|


   S  S  S  S  S  S  S  S  S  S  S  S  S  S  S  S
|-15-12----------------------12-15-12-------------|
|-------14-11----------11-14----------14-11-------|
|-------------12-11-12----------------------12-11-|
|-------------------------------------------------|
|-------------------------------------------------|
|-------------------------------------------------|


   S  S  S  S  S  S  S  S  S  S  S  S  S  S  S  S
|-18-14-------------------------18-14-------------|
|-------17-14----------14-17-19-------17-14-------|
|-------------16-15-16----------------------16-15-|
|-------------------------------------------------|
|-------------------------------------------------|
|-------------------------------------------------|


   S  S  S  S  S  S  S  S  S  S  S  S  S  S  S  T  T
|-19-18----------------18-19-18----------------18-21-|
|-------19-17----17-19----------19-17----17-19-------|
|-------------18----------------------18-------------|
|----------------------------------------------------|
|----------------------------------------------------|
|----------------------------------------------------|


                     |------3-------|                 |------3-------|
   T  T  T  T  S  S  S  S  S  S  S  S  S  T  T  S  S  S  S  S  S  S  S
|-18-18----------------------------------------------------------18-21-|
|-------20-------20-17-------------------------------------17-20-------|
|----------21-18-------18-------------------15-18-------18-------------|
|-------------------------20-20-17-------17-------17-20----------------|
|----------------------------------19-16-------------------------------|
|----------------------------------------------------------------------|


   |------3-------|  |------3-------|  |------3-------|  |--------7--------|
   S  S  S  S  S  S  S  S  S  S  S  S  S  S  S  S  S  S  S  S  S  S  S  S  S
|-22-18----------------------------18-18-14----------------------------14-21-|
|-------19----------------------19----------15----------------------15-------|
|----------19----------------19----------------15----------------15----------|
|-------------20----------20----------------------16----------16-------------|
|----------------21-17-21----------------------------17-13-17----------------|
|----------------------------------------------------------------------------|


   |------3-------|  |------3-------|  |------3-------|  |------3-------|
   S  S  S  S  S  S  S  S  S  S  S  S  S  S  S  S  S  S  S  S  S  S  S  S
|-21-19-18-21-19-18-21-19-18-21-19-18-22-21-19-22-21-19-22-21-19-22-21-19-|
|-------------------------------------------------------------------------|
|-------------------------------------------------------------------------|
|-------------------------------------------------------------------------|
|-------------------------------------------------------------------------|
|-------------------------------------------------------------------------|


   |------3-------|  |------3-------|
   S  S  S  S  S  S  S  S  S  S  S  S  H
|-24-22-21-24-22-21-24-22-21-24-22-21-24b26r===|
|----------------------------------------------|
|----------------------------------------------|
|----------------------------------------------|
|----------------------------------------------|
|----------------------------------------------|


                                           ~~~~
   Q      E  +Q    Q        +Q    +E.  S  +S
|-24b26r=24-(24)--24b26r=|=(24)--(24)-24-(24)----|
|------------------------|-----------------------|
|------------------------|-----------------------|
|------------------------|-----------------------|
|------------------------|-----------------------|
|------------------------|-----------------------|




--------------------------------------------------------------------------------


Duration Legend
---------------
W - whole; H - half; Q - quarter; E - 8th; S - 16th; T - 32nd; X - 64th; a - acciaccatura
+ - note tied to previous; . - note dotted; .. - note double dotted
Uncapitalized letters represent notes that are staccato (1/2 duration)
Irregular groupings are notated above the duration line
Duration letters will always appear directly above the note/fret number it represents the
duration for.  Duration letters with no fret number below them represent rests.  Multi-
bar rests are notated in the form Wxn, where n is the number of bars to rest for.  Low
melody durations appear below the staff

Tablature Legend
----------------
 h   - hammer-on
 p   - pull-off
 b   - bend
 pb  - pre-bend
 r   - bend release (if no number after the r, then release immediately)
 /\  - slide into or out of (from/to "nowhere")
 s   - legato slide
 S   - shift slide
 - natural harmonic
[n]  - artificial harmonic
n(n) - tapped harmonic
 ~   - vibrato
 tr  - trill
 T   - tap
 TP  - trem. picking
 PM  - palm muting
\n/  - tremolo bar dip; n = amount to dip
 \n  - tremolo bar down
 n/  - tremolo bar up
/n\  - tremolo bar inverted dip
 =   - hold bend; also acts as connecting device for hammers/pulls
 <> - volume swell (louder/softer)
 x   - on rhythm slash represents muted slash
 o   - on rhythm slash represents single note slash

Misc Legend
-----------
 |  - bar
||  - double bar
||o - repeat start
o|| - repeat end
*|  - double bar (ending)
 :  - bar (freetime)
 $  - Segno
 &  - Coda
Tempo markers -  = BPM(8/16=s8/s16), where s8 = swing 8ths, s16 = swing 16ths



--------------------------------------------------------------------------------

** Generated using Power Tab Editor by Brad Larsen: The Official Power Tab Web Site
comments
We did not receive enough feedback on this tab! Please rate:
print report bad tab
1 2 3 4 5
I want to post or [tab]
guest
You may want to rate the tab now too:
select rating
Please do not post tabs as comments. Select "correction" instead!