Oops, an error
Loading. Please wait.

Constant Motion Tab

version 1
version 1

Whole song

159,703 views 132 this week
39 commentsread comments
1 2 3 4 5
excellent!
x 59
add to favorites
launch autoscroll
font size
0
reset
how to read this tab
guitar tuner
Autoscroll
slow
fast
+/-
esc
set tempo
stop
Help us to improve Ultimate-Guitar.com Take our survey!
×
Author
Difficulty
advanced
I wrote this tab writing first all the riffs played by Petrucci in the song (and 
them), then i wrote the sequence of the riffs, writing only the numbers that I gave to them.
In this way I saved a lot of space, so you can print this tab easily (without using too many papers!).

--HERE THERE ARE ALL THE RIFFS--


  [Riff 1.1]
e|----------------------|--------------------------|
B|----------------------|--------------------------|
G|----------------------|--------------------------|
D|----------------------|------------------5-------|
A|------7-5-7-5---8-5---|------7-5-7-5---8---7-----|
E|--0-5---------6-----6-|--0-5---------6-------8-6-|

e|----------------------|--------------------------------|
B|----------------------|--------------------------------|
G|----------------------|--------------------------------|
D|----------------------|------------------5-------------|
A|------7-5-7-5---8-5---|------7-5-7-5---8---7-----3-2---|
E|--0-5---------6-----6-|--0-5---------6-------8-6-----1-|


  [Riff 1.2]
e|----------------------|--------------------------|----------------------|
B|----------------------|--------------------------|----------------------|
G|----------------------|--------------------------|----------------------|
D|----------------------|------------------5-------|----------------------|
A|------7-5-7-5---8-5---|------7-5-7-5---8---7-----|------7-5-7-5---8-5---|
E|--0-5---------6-----6-|--0-5---------6-------8-6-|--0-5---------6-----6-|

e|------------------------------------|
B|------------------------------------|
G|------------------------------------|
D|------------------5-----------------|
A|------7-5-7-5---8---7-----3-5-2-----|
E|--0-5---------6-------8-6-------3-1-|


  [Riff 1.3]
e|----------------------|--------------------------|
B|----------------------|--------------------------|
G|----------------------|--------------------------|
D|----------------------|--------------------------|
A|------2-0-2-0---3-2---|------2-0-2-0---3-5-2-----|
E|--0-1---------1-----1-|--0-1---------1-------3-1-|

e|----------------------|--------------------------------|
B|----------------------|--------------------------------|
G|----------------------|--------------------------------|
D|----------------------|--------------------------------|
A|------2-0-2-0---3-2---|------2-0-2-0---3-5-2-----2-----|
E|--0-1---------1-----1-|--0-1---------1-------3-1---3-1-|


  [Riff 1.4]
e|----------------------|--------------------------|
B|----------------------|--------------------------|
G|----------------------|--------------------------|
D|----------------------|--------------------------|
A|------2-0-2-0---3-2---|------2-0-2-0---3-5-2-----|
E|--0-1---------1-----1-|--0-1---------1-------3-1-|

e|----------------------|----------------------------------|
B|----------------------|----------------------------------|
G|----------------------|----------------------------------|
D|----------------------|----------------------------------|
A|------2-0-2-0---3-2---|------2-0-2-0-----3-5-2-----2-----|
E|--0-1---------1-----1-|--0-1---------1-0-------3-1---3-1-|


  [Riff 2.1]
e|--------------------------------------------------|------------------------------------------------|
B|--------------------------------------------------|------------------------------------------------|
G|--------------------------------------------------|------------------------------------------------|
D|-----------3p2-3p2-----3p2-------------3p2-0-3----|-----------3p2-3p2-----3p2----------------------|
A|-----------3p2-3p2-----3p2-------------3p2-0-3----|-----------3p2-3p2-----3p2------------3-5-2-----|
E|--0--0--0------------0-------0--0--0--0-----------|--0--0--0------------0-------0--0--0--------3-1-|

e|--------------------------------------------------|----------------------------------------------|
B|--------------------------------------------------|----------------------------------------------|
G|--------------------------------------------------|----------------------------------------------|
D|-----------3p2-3p2-----3p2-------------3p2-0-3----|-----------3p-2-3p-2--------------------------|
A|-----------3p2-3p2-----3p2-------------3p2-0-3----|-----------3p-2-3p-2----------3-5-2-----2-----|
E|--0--0--0------------0-------0--0--0--0-----------|--0--0--0------------0--0--0--------3-1---3-1-|


  [Riff 2.2]
e|---------------------------------|----------------------------------|
B|---------------------------------|----------------------------------|
G|---------------------------------|----------------------------------|
D|---------------------------------|----------------------------------|
A|--2-0-2--L--2-0-2-3-2----------0-|--2-0-2--L--2-0-2-3-2-----------0-|
E|----------------------5-3-2--3---|----------------------5-3-2-0-3---|

e|---------------------------------|----------------------------------|
B|---------------------------------|----------------------------------|
G|---------------------------------|----------------------------------|
D|---------------------------------|----------5-4----2-0--------------|
A|--2-0-2--L--2-0-2-3-2----------0-|--2-0-2-3-----3------3-0--3-2-----|
E|----------------------5-3-2--3---|------------------------------2-3-|


  [Riff 2.3]
e|----------------------------------|----------------------------------|
B|----------------------------------|----------------------------------|
G|----------------------------------|----------------------------------|
D|------3-2-3-2---3-2-----2-3-2-0-3-|------3-2-3-2---3-2-----2-5-2-----|
A|----2-----------------------------|----2-------------------------3-1-|
E|--0-----------0-----0-0-----------|--0-----------0-----0-0-----------|

e|----------------------------------|--------------------------------------|
B|----------------------------------|--------------------------------------|
G|----------------------------------|--------------------------------------|
D|------3-2-3-2---3-2-----2-3-2-0-3-|------3-2-3-2---------3-5-2-----2-----|
A|----2-----------------------------|----2-----------------------3-1---3-1-|
E|--0-----------0-----0-0-----------|--0-----------0-0--0------------------|


  [Riff 3.1]
e|--------------------------------------|--------------------------------------|
B|--------------------------------------|--------------------------------------|
G|--------------------------------------|--------------------------------------|
D|--------------------------------------|--------------------------------------|
A|--2S-4-4-4-4S-2-2-2-2S-4-4-4-4S-5-5-5-|--5S-7-7-7-7S-5-5-5-5S-7-7-7-7S-8-8-8-|
E|--0S-2-2-2-2S-0-0-0-0S-2-2-2-2S-3-3-3-|--3S-5-5-5-5S-3-3-3-3S-5-5-5-5S-6-6-6-|

e|--------------------------------------|------------------------------------|
B|--------------------------------------|------------------------------------|
G|--------------------------------------|------------------------------------|
D|--------------------------------------|----------------------7-7-7-7-8-8-8-|
A|--2S-4-4-4-4S-2-2-2-2S-4-4-4-4S-5-5-5-|--5S-7-7-7-7S-5-5-5-5-5-5-5-5-6-6-6-|
E|--0S-2-2-2-2S-0-0-0-0S-2-2-2-2S-3-3-3-|--3S-5-5-5-5S-3-3-3-3-5-5-5-5-6-6-6-|


  [Riff 3.2]
e|--------------------------------------|--------------------------------------|
B|--------------------------------------|--------------------------------------|
G|--------------------------------------|--------------------------------------|
D|--------------------------------------|--------------------------------------|
A|--2S-4-4-4-4S-2-2-2-2S-4-4-4-4S-5-5-5-|--5S-7-7-7-7S-5-5-5-5S-7-7-7-7S-8-8-8-|
E|--0S-2-2-2-2S-0-0-0-0S-2-2-2-2S-3-3-3-|--3S-5-5-5-5S-3-3-3-3S-5-5-5-5S-6-6-6-|

e|----------------------------------|----------------------------------|
B|----------------------------------|----------------------------------|
G|----------------------------------|----------------------------------|
D|----------------------------------|--------------------7-7-7-7-8-8-8-|
A|--9-9-9-9-9-9-9-9-9-9-9-9-9-9-9-9-|--7-7-7-7-7-7-7-7-7-5-5-5-5-6-6-6-|
E|--7-7-7-7-7-7-7-7-7-7-7-7-7-7-7-7-|--5-5-5-5-5-5-5-5-5-5-5-5-5-6-6-6-|


  [Riff 3.3]
e|--------------------------------------|--------------------------------------|
B|--------------------------------------|--------------------------------------|
G|--------------------------------------|--------------------------------------|
D|--------------------------------------|--------------------------------------|
A|--2S-4-4-4-4S-2-2-2-2S-4-4-4-4S-5-5-5-|--5S-7-7-7-7S-5-5-5-5S-7-7-7-7S-8-8-8-|
E|--0S-2-2-2-2S-0-0-0-0S-2-2-2-2S-3-3-3-|--3S-5-5-5-5S-3-3-3-3S-5-5-5-5S-6-6-6-|

e|----------------------------------|----------------------------------|
B|----------------------------------|----------------------------------|
G|----------------------------------|----------------------------------|
D|----------------------------------|----------------7-7-7-7---6-6-6---|
A|--9-9-9-9-9-9-9-9-9-9-9-9-9-9-9-9-|----7-7-7-7-----5-5-5-5---4-4-4---|
E|--7-7-7-7-7-7-7-7-7-7-7-7-7-7-7-7-|----5-5-5-5-----5-5-5-5---4-4-4---|


  [Riff 4.1]
e|---------------------------------------------|-----------------------------------------|
B|---------------------------------------------|-----------------------------------------|
G|---------------------------------------------|-----------------------------------------|
D|---------------------------------------------|-----------------------------------------|
A|-----------2-------------2---------------2---|-----------2-------------2-----3-5-2-----|
E|--0--0--0--0----0--0--0--0------0--0--0--0---|--0--0--0--0----0--0--0--0-----------3-1-|

e|---------------------------------------------|---------------------------------------------|
B|---------------------------------------------|---------------------------------------------|
G|---------------------------------------------|---------------------------------------------|
D|---------------------------------------------|---------------------------------------------|
A|-----------2-------------2---------------2---|-----------2-------------2----3-5-2p-0-----2-|
E|--0--0--0--0----0--0--0--0------0--0--0--0---|--0--0--0--0----0--0--0--0-------------3-1---|


  [Riff 4.2]
e|----------------------------------------------|---------------------------------------------|
B|----------------------------------------------|---------------------------------------------|
G|----------------------------------------------|---------------------------------------------|
D|----------------------------------------------|---------------------------------------------|
A|--2-0---0-2----2-0-2----2-0---0-2---0-2-3-2-0-|--2-0---0-2----2-0-2----2-0-------0-2-0-2-3--|
E|------2---------------------2-----2-----------|------2---------------------2-0-2---------3--|


  [Riff 4.3]
e|----------------------------------------------|------------------------------------------|
B|----------------------------------------------|------------------------------------------|
G|----------------------------------------------|------------------------------------------|
D|----------------------------------------------|------------------------------------------|
A|-----------14\------------2---------------2---|-----------14\------------2-----3-5-2-----|
E|--0--0--0--12\---0--0--0--0------0--0--0--0---|--0--0--0--12\---0--0--0--0-----------3-1-|

e|----------------------------------------------|----------------------------------------------|
B|----------------------------------------------|----------------------------------------------|
G|----------------------------------------------|----------------------------------------------|
D|----------------------------------------------|----------------------------------------------|
A|-----------14\------------2---------------2---|-----------14\------------2----3-5-2p-0-----2-|
E|--0--0--0--12\---0--0--0--0------0--0--0--0---|--0--0--0--12\---0--0--0--0-------------3-1---|


  [Riff 5.1]
e|------------------------------------------------|--------------------------------------------------|
B|------7--5--7--5-----8--5-----7-----5-----------|--------7--5--7--5-----8--5-----8--10-7-----------|
G|---6--------------6--------6-----6-----6-----6--|-----6--------------6--------6-----------6-----6--|
D|-4----------------------------------------5-----|--4-----------------------------------------5-----|
A|------------------------------------------------|--------------------------------------------------|
E|------------------------------------------------|--------------------------------------------------|

e|--------------------------------------------------|---------------------------------------------|
B|--------7--5--7--5-----8--5-----7-----5-----------|--------7--5--7--5-----8--5-----5------------|
G|-----6--------------6--------6-----6-----6-----6--|-----6--------------6--------6-----6---------|
D|--4-----------------------------------------5-----|--4-----------------------------------4------|
A|--------------------------------------------------|---------------------------------------------|
E|--------------------------------------------------|---------------------------------------------|


  [Riff 5.2]
e|----------------------------------------|-------------------------------------|
B|----------------------------------------|-------------------------------------|
G|----------------------------------------|-------------------------------------|
D|---------4---2-5----4---2-0---0-2-------|---------4---2-5----4-2---2-4-2------|
A|-------4--------------------4-----4-2---|-------4----------------4------------|
E|--2--2--------------------------------3-|--2--2---------------------------3-5-|


  [Riff 5.3]
e|------------------------------------|----------------------------------------|
B|------------------------------------|----------------------------------------|
G|------------------------------------|-------------------------------------5--|
D|----------------------2-4-5-4-2---2-|-------------------------------------5--|
A|--4--2-4--2-5--L-4--4-----------5---|--4--2-4--2-5--L-4-------------------3--|
E|--2--0-2--0-3--L-2------------------|--2--0-2--0-3--L-2-2--2--0--3--3--0-----|

e|------------------------------------|----------------------------------------|
B|------------------------------------|----------------------------------------|
G|------------------------------------|----------------------------------------|
D|----------------------2-4-5-4-2---2-|-------------------------------------3--|
A|--4--2-4--2-5--L-4--4-----------5---|--4--2-4--2-5--L-4-------------------3--|
E|--2--0-2--0-3--L-2------------------|--2--0-2--0-3--L-2-2--2--0--3--3--0--1--|


--HERE THERE IS THE SEQUENCE OF THEM!--


[Intro]

e|----------|
B|----------|
G|----------|
D|----------|
A|----------|
E|-----12\--|

Riff 1.1 x2
Riff 1.2 x1
Riff 1.3 x1
Riff 1.4 x1


[Pre-verse]

Riff 2.1 x2


[Verse 1]

Riff 2.1 x2
Riff 2.2 x1
Riff 2.3 x1


[Chorus]

Riff 3.1 x1
Riff 3.2 x1
Riff 3.3 x1


[Pre-Verse]

Riff 2.1 x1


[Verse 2]

Riff 4.1 x2
Riff 4.2 x2
Riff 4.3 x1


[Chorus]

Riff 3.1 x1
Riff 3.2 x1
Riff 3.3 x1


[Interlude]

e|-------|-------|-------|
B|-------|-------|-------|
G|-------|-------|-------|
D|--4----|-------|-------|
A|--4----|-------|-------|
E|--2----|-------|-------|

Riff 5.1 x1
Riff 5.2 x8 (During the solo)


  [Guitar Solo]
e|--------------------------------------------|
B|--------------------------------------------|
G|--------------------------------------------|
D|----------11~--L----L--L-9-11-11h-12-L-11-9-|
A|--\9--10------------------------------------|
E|--------------------------------------------|

e|--------------------------------------|--------------------------------------|
B|--------------------------------------|--------------------------------------|
G|--------------------------------------|----------------9--9h-11-L~----L-9p-7-|
D|--11---9------------------------------|-------\11--12------------------------|
A|---------10-9---10p-9p-7--L-<>L~-L----|--------------------------------------|
E|--------------------------------------|--------------------------------------|

e|------------------------------------------------|--------------------------------------------------|
B|------------------------------------------------|-------------11h-12--L-11--------14----L--12--14--|
G|--9h-11-L~--L----L-11-11-11-11-11-11-<>11~--L\--|-----11--12---------------12p-11------------------|
D|------------------------------------------------|--------------------------------------------------|
A|------------------------------------------------|--------------------------------------------------|
E|------------------------------------------------|--------------------------------------------------|

e|---------------------------------------------|
B|--14g15~------15-15s-14s-12-12-14-14~-L--L\--|
G|---------------------------------------------|
D|---------------------------------------------|
A|---------------------------------------------|
E|---------------------------------------------|

e|----------14-12-10-12------------------------------------------------------|
B|----15-17-------------14--15-17-19-17-14p-0-14h-15p-0-11p-0-11h-12p-0-7p-0-|
G|---------------------------------------------------------------------------|
D|---------------------------------------------------------------------------|
A|---------------------------------------------------------------------------|
E|---------------------------------------------------------------------------|

e|--------------------------------------------------------------------------------|
B|--7h-8p-0-3p-0-3h-5-0h-3-0h-3-5p-3-0h-2-7p-5p-0-7p-5p-0-5p-3p-0-5p-3p-0-3p-2p-0-|
G|--------------------------------------------------------------------------------|
D|--------------------------------------------------------------------------------|
A|--------------------------------------------------------------------------------|
E|--------------------------------------------------------------------------------|

e|-------------------------------------------|
B|-------------------------------------------|
G|--3--4-6-L--6-4-3--------------------------|
D|------------------2--4-5-L--5-4-2----------|
A|----------------------------------1--2-4---|
E|-----------------------------------------3-|

e|---------------------------------------------------------12------------|
B|------------------------------------10-12-14-12-11-12-14----14-12-11-8-|
G|--------------------3-4-6-7-9-11-12------------------------------------|
D|--------------2-4-5----------------------------------------------------|
A|------1-2-4-5----------------------------------------------------------|
E|--2--------------------------------------------------------------------|

e|------------------------9-6-----------6-|--9---10-9-7--L-10-12-14~---------|
B|--7---8-7-----------7-8-----7-5---5-7---|----------------------------------|
G|----------9~----L-9-------------6-------|----------------------------------|
D|----------------------------------------|----------------------------------|
A|----------------------------------------|----------------------------------|
E|----------------------------------------|----------------------------------|

e|--14-12-------------------------14----------------15-12-------------------------|
B|--------12-11----------11-12-14----14-12-11-------------14-12----------12-14-17-|
G|--------------12-11-12----------------------12-11-------------12-11-12----------|
D|--------------------------------------------------------------------------------|
A|--------------------------------------------------------------------------------|
E|--------------------------------------------------------------------------------|

e|--18-14-------------------------18----------------19-18----------------18-19-18-|
B|--------17-14----------14-17-19----19-17-14-------------19-17----17-19----------|
G|--------------16-15-16----------------------16-15-------------18----------------|
D|--------------------------------------------------------------------------------|
A|--------------------------------------------------------------------------------|
E|--------------------------------------------------------------------------------|

e|--21p-18---------------------------------------------------------------18h-21-22-|
B|---------20-------20p-17----------------------------------------17h-20-----------|
G|------------21-----------18-------------------------18-------18------------------|
D|---------------23-----------20-20p-17------------20-------20---------------------|
A|--------------------------------------19------22-------22------------------------|
E|-----------------------------------------21-L------------------------------------|

e|--21--19-18-21-19-18-21-19-18-21-19-18-22-21-19-22---24b---24b---24b--L~---------|
B|---------------------------------------------------------------------------------|
G|---------------------------------------------------------------------------------|
D|---------------------------------------------------------------------------------|
A|---------------------------------------------------------------------------------|
E|---------------------------------------------------------------------------------|


[Keyboard Solo]

Riff 5.3 x1
Riff 2.1 x1
Riff 2.3 x1
Riff 2.1 x1


[Chorus]

Riff 5.1 x1
Riff 5.2 x3
Riff 5.3 x1


[Outro]

Riff 1.1 x1
Riff 1.2 x1
e|-------|
B|-------|
G|-------|
D|--2----|
A|--2----|
E|--0----|

I hope you like the way I wrote this tab. Enjoy!



************************************

| g  Grace note
| h  Hammer-on
| p  Pull-off
| b  Bend
| \  Slide down
| ~  Vibrato
| s  Slide

************************************
Suggest correction
comments
print report bad tab
39 comments total. Showing first comments.
0 reply
a7xsoad 101 wrote on May 29 2007, 03:24 pm

****in sick tab!!! Nice one... good to see the new DT ones tabbed... pretty sharply lol !!!

0 reply
that1l)ude 20 wrote on June 5 2007, 08:58 am

very good tab. i love the way you organized it, makes it much easier to learn. also nice to see someone tab that ridiculous solo on the first tab.

0 reply
ShrimpthePimp 785 wrote on June 8 2007, 05:21 pm

so...uhm...whats the tuning?

guest
You may want to rate the tab now too:
select rating
Wanna post a correction for this tab? Suggest correction