Oops, an error
Loading. Please wait.

Crimson Sunrise Bass Tab

version 1
version 1

Whole song

Interactive

356 views 1 this week
no commentswrite comment
1 2 3 4 5
please rate
add to favorites
launch autoscroll
font size
0
reset
guitar tuner
Tab Pro tools
  • play this tab
  • loop segment
  • change instrument
  • show fretboard
  • metronome
×
Best way to learn
"Crimson Sunrise"
Autoscroll
slow
fast
+/-
esc
set tempo
stop
Song: A Change of Seasons I (Crimson Sunrise)
Album: A Change Of Seasons
Type: Bass
Author(s): Elder Luis Bernardinelli


                                       A
                                  C H A N G E
                                      O F
                                 S E A S O N S

                    ### First Part - The Crimson Sunrise ###

                                   BASS  TAB

                           *****  6 STRING BASS  *****

                                      by:

          ELDER LUIS BERNARDINELLI -=>   ELDER@BBS.YAZIGI.COM.BR



According to Mike Portnoy, these are the official start times of each
section:

     I - The Crimson Sunrise 0:00
     II - Innocence 3:50
     III - Carpe Diem 6:54
     IV - The Darkest of Winters 10:08
     V - Another World 13:01
     VI - The Inevitable Summer 16:59
     VII - The Crimson Sunset 20:12



  (1:27)         (1:39)
C-------------|-------------------------------------------------------------
G-------------|-------------------------------------------------------------
D-------------|-------------------------------------------------------------
A-------------|-------------------------------------------------------------
E-------------|------------2-5----2-3-----2-------------------2-3-----2-----
B-0-0-0-0-0-0-|0-3-5-0-2-3------0-----0-5---0-3-5-0-2-3-0-3-0-----0-5---0-3-

C-----------------------------------------------------------------|---------
G-----------------------------------------------------------------|---------
D-----------------------------------------------------------------|---------
A-----------------------------------------------------------------|---------
E---------1---2-3-----2-------------------2-3-----2-------------1-|---------
B-5-0-2-3---0-----0-5---0-3-5-0-2-3-0-3-0-----0-5---0-3-5-0-2-3---|---------

  (1:53)                        (2:06)
C-----------------------------|-------6-2-4---6-2-4-------6-2-4---6-2-4--|--
G-----------------------------|-------------4-------------------4--------|--
D-----(4-times)---------------|------------------------------------------|--
A-----------------------------|------------------------------------------|--
E---2-3---0-2-----0-----------|------------------------------------------|--
B-0-----0-----0-3---0-2-3-0-3-|--0-0------------------0-0----------------|--

  (2:12)
C---------------------------------------------------------------------------
G---------------------------------------------------------------------------
D---------------------------------------------------------------------------
A---------------------------------------------------------------------------
E---------------------5-7-0-2-0-------------------------5-7-0-2-0----0------
B-0-0-0-0-0-0-3-4-5-0-----------3-3-0-0-0-0-0-0-3-4-5-0-----------3-3-------

C---------------------------------------------------------------------------
G---------------------------------------------------------------------------
D---------------------------------------------------------------------------
A---------------0-2---------------0-2---------------0-2-----------5-7-5-7-5-
E--5-7-5-7-0-2-------5-7-5-7-0-2-------5-7-5-7-0-2-------5-7-5-7-----------7
B0-----------------0-----------------0-----------------0--------------------

  (2:36)
C---------------------------------------------------------------------------
G---------------------------------------------------------------------------
D-------------------0------------------------------------------------0-2-0--
A---2---0-2---0-2-----2-0---2---0-2---0-2------------2---0-2---0-2---------2
E-----------------------------------------------2---------------------------
B-0---0-----0-----0-------0---0-----0-----0-3-5----0---0-----0-----0--------

                              (2:48)
C---------------------------------------------------------------------------
G---------------------------------------------------------------------------
D------------------------------------------------------------2--------------
A---2---0-2---0-2----------------------------------------2-4---5------------
E-----------------------2--------2---4-2-2---5---4-0-4-5-------------2---4--
B-0---0-----0-----0-3-5------2-2---2-------2---2-----------------2-2---2----

C---------------------------------------------------------------------------
G-------------------------------------------2------------------------2---4--
D-----------6-----------2-0-----4---6-4-4-------6-----------2-0--2-2---2----
A-------0-4---------2-4-----4-4---4-------4---4---7-----2-4-----------------
E-2-2---------0-4-5---------------------------------4-5---------------------
B-----2---------------------------------------------------------------------

C-------0-------------------------------------------------------------------
G-2-2-------4-0---------0---------------------------------------------------
D-----2---2---------0-2---3-------------------------------0-----------------
A---------------2-3-----------------2-0-0---3---2---0-2-3-------------------
E---------------------------0-0-5-0-------0---0---2---------3-1-----2---4---
B---------------------------------------------------------------2-2---2-----

C---------------------------------------------------------------------------
G---------------------------------------------------------------------------
D-----------------------2-0---------------------6-----------2-0-----4---6-4-
A-------0-----------2-4-----------------------4---------2-4-----4-4---4-----
E-2-2-------4-0-4-5-------------2---4-2-2---5-----0-4-5---------------------
B-----2---2-----------------2-2---2-------2---------------------------------

C--------------------------------------0-----------------------------------0
G--2-----------------------2---4-2-2-------4-----------0--------2---4-2-2---
D------6-----------2-0-2-2---2-------2---2---------0-2---3--2-2---2-------2-
A4---4---7-----2-4-----------------------------2-3--------------------------
E-----------4-5-------------------------------3-----------------------------
B---------------------------------------------------------------------------
                                                        (3:31)
C---------------------------------------------------------------------------
G---4-0---------0-----------------------------------------------------------
D-2---------0-2---3-----------------------------------------------------2-0-
A-------2-3-----------------2-0-0-------2---------------------------2-4-----
E-------------------0-0-5-0-------0---0---3-------0-3-1-------0-4-5---------
B-----------------------------------1-------0-1-3--------2~-4---------------

                                                (3:41)
C------------------------------------------------------------------6-9-8----
G------------------------------------------------------------5-8-7----------
D------------------2-0--------------------2----0-0--------------------------
A-4~--0--------2-4--------------------2-4------------9-12-9-----------------
E----------4-5------------------0-4-5---------------------------------------
B--------0---------------2~--4----------------------------------------------

                (3:46) A quick bridge here... Then finish the first part...
C-12-15-14--|-14-13-12------------------------------------------|-----------
G-----------|----------14-13-11---------------------------------|-----------
D-----------|-------------------13-11---------------------------|-----------
A-----------|-------------------------12-9----9----------0------|-----------
E-----------|------------------------------11---11--------------|-----------
B-----------|--------------------------------------14-13---9-7--|-2-2-2--2--




comments
We did not receive enough feedback on this tab! Please rate:
print report bad tab
1 2 3 4 5
I want to post or [tab]
guest
You may want to rate the tab now too:
select rating
Please do not post tabs as comments. Select "correction" instead!