Oops, an error
Loading. Please wait.

Different Strings Medley Bass Tab

533 views 1 this week
no commentswrite comment
1 2 3 4 5
please rate
add to favorites
launch autoscroll
font size
0
reset
guitar tuner
Autoscroll
slow
fast
+/-
esc
set tempo
stop
Help us to improve Ultimate-Guitar.com Take our survey!
×
Standard Tuning

 G-------------------------------------------|
  D------------------------------------------|
  A-0--5(5)-3-23-5(5)------------------------|
  E------------------------------------------|

  G-----------------------------------------|
  D-----------------------------------------|  x4
  A-0-5(5)-3-23--5/10/12--------------------|
  E-----------------------------------------|

  G-----------------------------------------|
  D-----------------------------------------|
  A-0-5(5)-3-23-5---------------------------|
  E-----------------------------------------|

  G--------------------------------11-9-14--|
  D-----------------------------97----------|
  A-2-22-------2-22-------0/97--------------|
  E------11 33------11 33-------------------|

  G-----------------------------------------|
  D------------------------------97--97-----|
  A-2-22-------2-22-------0/97--------------|
  E------11 33------11-33-------------------|

  G-----------------------------------------|
  D------9-7--------------------------------|
  A-3-33-----7\0----0-00--7-5-3\0-----------|
  E-----------------------------------------|

  G-----------------------------------------|
  D-----------------------------------------|
  A-3-33-5-55-7--75\3---3-33-3-2-2-23-2-0---|
  E-----------------------------------------|

  G-----------------------------------------|
  D ----------------------------------------|
  A-7-5-3-------0---------------------------|
  E-------11-33-----------------------------|

  G-----------------------------------------|
  D-----------------------------------------|  x2
  A-0---5---3---5---0---5---3---5--(3)------|
  E-----------------------------------------|

  G-----------------------------------------|
  D-----------------------------------------|
  A-0-00--0-5--55--5-3-33-3--5--55--5-------|
  E-----------------------------------------|

  G-----------------------------------------|
  D-----------------------------------------|
  A-0-00-0-5-55-5-3-33-3-5-55-(3)-----------|
  E-----------------------------------------|

  G-----------------------------------------|
  D-----------------------------------------|
  A-0-00-0-5-55-5-3-33-3-5-55-5-------------|
  E-----------------------------------------|

  G-----------------------------------------|
  D-----------------------------------------|
  A-0-00-0-5-55-5-3-3333333-5-5555-3--------|
  E-----------------------------------------|

  G-----------------------------------------|
  D-----------------------------------------|
  A-0-00000--5-55555--3-3333333--5-5555-3---|
  E-----------------------------------------|

  G-----------------------------------------|
  D-----------------------------------------|
  A-0-00000--5-55555--3-3333333--5-5555-3---|
  E-----------------------------------------|

  G-----------------------------------------|
  D-----------------------------------------|
  A-0-00-0--5-55-5--3-33-3--5-55-5----------|
  E-----------------------------------------|

  G-----------------------------------------|
  D-----------------------------------------|
  A-0-00-0--5-55-5--3-33-3--5-55-5----------|
  E-----------------------------------------|

  G-----------------------------------------|
  D---------57-97---------------------------|  x4
  A-0-0---57-----97-5-----------------------|
  E-----------------------------------------|

  G-----------------------------------------|
7 D-----------------------------------------|
4 A-----------0-0000-0------------0---------|
  E-1-1-111-1----------1-1-111-1------------|

  G-----------------------------------------|
  D-----------------------------------------|
  A-----0-----------0----0----------0----0--|
  E-1------1----1-----------1----1----------|

  G-----------------------------------------|
  D-----------------------------------------|
  A------------0-00-00-00-------------------|
  E-1-11-11-11------------------------------|

  G--------------------------------------------|
  D--------------------------------------------|  x6
  A-------------------0-000-0-000-0-000-0-000--|
  E-1-111-1-111-1-111--------------------------|

  G----------------------------------------------------------|
  D----21---0-------21---0-------21---0--------2-0-----------|
  A-0---------32--0--------32--0---------32---0----3-0-3-0---|
  E----------------------------------------------------------|

Thanks, please rate it after you learn it
Suggest correction
Give kudos to tab author, rate the tab!
1 2 3 4 5
comments
print report bad tab
guest
You may want to rate the tab now too:
select rating
Wanna post a correction for this tab? Suggest correction