Oops, an error
Loading. Please wait.

Dystopian Overture bass

version 1
version 1

Whole song

Interactive

802 views 1 this week
no commentswrite comment
1 2 3 4 5
2 more votes to show rating
add to favorites
×
Save as Personal and add changes to this tab that will be seen only by you. Learn more ›
×
You can save this tab as Personal to edit and correct it or add notes. All changes will be seen only by you. Learn more »
launch autoscroll
font size
0
reset
guitar tuner
backing track
0:00
0:00
edit
Autoscroll
slow
fast
+/-
esc
set tempo
stop
Author
Difficulty
  Dream Theater - Dystopian Overture

Here's the first song from DT's new album! An overture is a bunch of themes that reoccur throughout
the rest of the work - so, each new section is totally different in terms of key, tempo, time signature, etc. 
I've marked every new section with a letter ranging from A-J to keep track!



[A] 0.00

C |-------|-------|-------|----------------|-------|-------|----------------|
G |-------|-------|-------|----------------|-------|-------|----------------|
D |-------|-------|-------|----------------|-------|-------|-----------5----|
A |-------|--2----|-------|--1-------------|-------|-------|-----2--4-------|
E |-------|-------|-------|-----3--2--0----|-------|-------|--3-------------|
B |--0----|-------|--0----|----------------|--0----|--2----|----------------|


C|----------|-------|----------------------------|-------|
G|----------|-------|----------------------------|-------|
D|--4-------|-------|----------------------------|-------|
A|-----4----|-------|--------------2--------2----|--1----|
E|----------|--2----|--------0--3--------3-------|-------|
B|----------|-------|-----0----------------------|-------|


C|----------------------------|-------|----------------------------|
G|----------------------------|-------|----------------------------|
D|----------------------------|-------|----------------------------|
A|--------------2--------2----|--5----|--4-----1-----1-----3--4----|
E|--------0--3--------3-------|-------|----------------------------|
B|-----0----------------------|-------|----------------------------|


C|----------------------------|----------------------------|----------|
G|----------------------------|----------------------------|----------|
D|----------------------------|----------------------------|----------|
A|--3-----0-----0-----2--3----|--2-------------------------|--2-------|
E|----------------------------|--------3-----3-----0--3----|----------|
B|----------------------------|----------------------------|-----0----|

                            
                          
C|----------------------------|
G|----------------------------|
D|----------------------------|
A|--1-------------------------|
E|--------3-----0-------------|
B|--------------------3--2----|


   [B] 0.44
C|-------|-------|-------|-------|-------|-------|
G|-------|-------|-------|-------|-------|-------|
D|-------|-------|-------|-------|-------|-------|
A|-------|-------|-------|-------|-------|-------|
E|-------|-------|--6----|--5----|-------|-------|
B|--3----|--3----|-------|-------|--3----|--3----|

C|-------|-------|-------|-------|-------|-------|----------|----------|
G|-------|-------|-------|-------|-------|-------|----------|----------|
D|-------|-------|-------|-------|-------|-------|----------|----------|
A|-------|--3----|--0----|--1----|--0----|--0----|--1--0----|----------|
E|--6----|-------|-------|-------|-------|-------|----------|--3--1----|
B|-------|-------|-------|-------|-------|-------|----------|----------|



[C] 1.14
C|------------|-----------------|----------|----------|
G|------------|-----------------|----------|----------|
D|------------|-----------------|----------|----------|
A|------------|--------3-----2--|-1--------|--0-------|
E|--0----2----|--3--------------|----------|----------|
B|------------|-----------------|----------|----------|


C|------------|-----------------|----------|----------|
G|------------|-----------------|----------|----------|
D|------------|-----------------|----------|----------|
A|------------|-----------------|----------|----------|
E|------------|--------2-----0--|----------|----------|
B|--0----2----|--4--------------|-2--------|--1-------|


C|------------|-----------------|----------|----------|
G|------------|-----------------|----------|----------|
D|------------|-----------------|----------|----------|
A|--0----2----|--------0--------|----------|----------|
E|------------|--4-----------3--|-2--------|--1-------|
B|------------|-----------------|----------|----------|


C|------------|-----------------|----------|----------|
G|------------|-----------------|----------|----------|
D|------------|-----------------|----------|----------|
A|------------|-------------2---|-1--------|-0--------|
E|--0---------|-----------------|----------|-----4-3--|
B|-------3----|--2-----1--------|----------|----------|





[D] 1.45
C|----------------|----------------|----------------|
G|----------------|----------------|----------------|
D|----------------|----------------|----------------|
A|----------------|----------------|----------------|
E|--2-------------|--2-------------|--2-------------|
B|----------------|----------------|----------------|



C|----------------------------------------------|
G|----------------------------------------------|
D|----------------------------------------------|
A|----------------------------------------------|
E|--0-----1--0--------------------3-----1-------|
B|-----------------4--3-----2-------------------|


C|-------------------|------------------------|-------------------|
G|-------------------|------------------------|-------------------|
D|-------------------|-----4---3--------------|-------------------|
A|-------------------|---4---4---3-------1----|-------------------|
E|--2-----1---0---3--|-2-----------2-1--------|--2-----1----0-----|
B|-------------------|----------------------4-|----------------4--|


C|----------------------------------------------|
G|----------------------------------------------|
D|----------------------------------------------|
A|----------------------------------------------|
E|--0-----1--0--------------------3-----1-------|
B|-----------------4--3-----2-------------------|

C|-------------------------------------|
G|--------------------------------5----|
D|------------------------------4------|
A|--3-2---2-1---------------3-6--------|
E|------4-----3-2-1-0-3---2------------|
B|----------------------4--------------|


[E] 2.03
C|----------------------------------|----------------------------------------|
G|----------------------------------|----------------------------------------|
D|----------------------------------|----------------------------------------|
A|----------------------------------|----------------------------------------|
E|--0--0-----0-----0--0-----0-------|--0--0-----0-----0--0-----0-----0--0----|
B|----------------------------------|----------------------------------------|


C|----------------------------------|----------------------------------------|
G|----------------------------------|----------------------------------------|
D|----------------------------------|----------------------------------------|
A|----------------------------------|----------------------------------------|
E|--0--0-----0-----0--0-----0-------|--0--0-----0-----0--0-----0-----0--0----|
B|----------------------------------|----------------------------------------|


                                                        

C|-------|-------|----------|----------|----------|-------|
G|-------|-------|----------|----------|----------|-------|
D|-------|-------|----------|----------|----------|-------|
A|-------|-------|----------|--0-------|----------|-------|
E|--2----|--3----|----------|-----3----|--2--2----|--2----|
B|-------|-------|--4--1----|----------|----------|-------|



 [F] 2.20

 (Let this B ring out)                             (Rest until you hear the tempo begin to slow)
C|-------|-------|-------|-------|-------|-------|-------|-------|----|----|----|----|-------|
G|-------|-------|-------|-------|-------|-------|-------|-------|----|----|----|----|-------|
D|-------|-------|-------|-------|-------|-------|-------|-------|----|----|----|----|-------|
A|-------|-------|-------|-------|-------|-------|-------|-------|----|----|----|----|-------|
E|-------|-------|-------|-------|-------|-------|-------|-------|----|----|----|----|-------|
B|--0----|--(0)--|--(0)--|--(0)--|-------|-------|-------|-------|----|----|----|----|-------|


 [G] 2.56
C|----------------------------|--------------------------------------------|
G|----------------------------|--------------------------------------------|
D|----------------------------|--------------------------------------------|
A|----------------------------|-------5--------------------5-----------5---|
E|----------------------------|---------------------------------5----------|
B|--3----3-----3--3-----------|--3---------3--3----------------------------|


C|----------------------------|--------------------------------------------|
G|----------------------------|--------------------------------------------|
D|----------------------------|--------------------------------------------|
A|----------------------------|-------5--------------------------5---------|
E|----------------------------|----------------------------5----------5----|
B|--3----3-----3--3-----------|--3---------3--3----------------------------|


C|----------------------------|--------------------------------------------|
G|----------------------------|--------------------------------------------|
D|----------------------------|--------------------------------------------|
A|----------------------------|-------5--------------------5---------------|
E|----------------------------|---------------------------------5----------|
B|--3----3-----3--3-----------|--3---------3--3------------------------3---|


C|----------------------------|--------------------------------------------|
G|----------------------------|--------------------------------------------|
D|----------------------------|--------------------------------------------|
A|--5-------------------------|-------5--------------------5---------------|
E|----------------------------|---------------------------------5----------|
B|-------3-----3--3-----------|--3---------3--3------------------------3---|



C|----------------------------|----------------------------|
G|----------------------------|----------------------------|
D|----------------------------|----------------------------|
A|----------------------------|----------------------------|
E|--3----3-----3--3-----------|--3----3-----3--3-----------|
B|----------------------------|-------------------------5--|



C|----------------------------|----------------------------|
G|----------------------------|----------------------------|
D|----------------------------|----------------------------|
A|----------------------------|----------------------------|
E|----------------------------|----------------------------|
B|--3----3-----3--3--------2--|--0----0-----0--0-----------|


C|----------------------------|----------------------------|
G|----------------------------|----------------------------|
D|----------------------------|----------------------------|
A|----------------------------|--0----0-----0--0-----------|
E|--0---0-----0--0------------|----------------------------|
B|----------------------------|----------------------------|



[H] 3.25
C|------------------------------|----------------------------|
G|------------------------------|----------------------------|
D|---------0--------------------|---------2-0----------------|
A|--1--1-1---3-1----------------|--3--3-3-----3--------------|
E|----------------1--1--1-------|----------------3---3-------|
B|------------------------------|----------------------------|


C|------------------------------|----------------------------|
G|------------------------------|----------------------------|
D|------------------------------|---------------------0-0-0--|
A|------------------------------|---------0-0-0-1-1-1--------|
E|------------------------------|---3-3-3--------------------|
B|------------------------------|----------------------------|

C------------------------------|----------------------------|
G---------0--------------------|----------------------------|
D--1--1-1---3-1----------------|----------------------------|
A----------------1--1--1-------|---------0------------------|
E------------------------------|--1--1-1---3-1--------------|
B------------------------------|---------------1---1--------|


C|------------------------------|
G|---------0--------------------|
D|--1--1-1---3-1----------------|
A|----------------1--1--1-------|
E|------------------------------|
B|------------------------------|


C|----------------|----------------|----------------|----------------|
G|----------------|----------------|----------------|----------------|
D|----------------|-----------3----|--2-----0-------|----------------|
A|-----------0----|-----0--2-------|-----1----------|--1-------------|
E|-----0--1-------|--4-------------|-----------4----|-----0--4-------|
B|--3-------------|----------------|----------------|-----------3----|




[I] 3.46
C|--------------|----------|-----------------|----------|
G|--------------|----------|-----------------|----------|
D|--------------|----------|-----------------|----------|
A|-----2--------|--(2)-----|-----2----5------|----------|
E|--------------|----------|---------------4-|--(4)-----|
B|--1-----------|----------|--1--------------|----------|

                                    
 
C|--------------|----------|-----------------|----------|
G|--------------|----------|-----------------|----------|
D|--------------|----------|-----------------|----------|
A|-----2--------|--(2)-----|-----2----5------|----------|
E|--------------|----------|---------------0-|--(0)---0-|
B|--1-----------|----------|--1--------------|----------|

                                     


 [J] 4.00
C|--------------|--------------|---------------|--------------|----------------|--------------|-------|
G|--------------|--------------|---------------|--------------|----------------|--------------|-------|
D|--------------|--------------|---------------|--------------|----------------|--------------|-------|
A|--0------0----|--------------|--5-------5----|--------------|--0--------0----|--------------|-------|
E|--------------|--------------|---------------|--------------|----------------|--------------|-------|
B|--------------|--2------2----|---------------|--3------3----|----------------|--2------2----|--3--3-|



C|----------|-------|-------|-------|-------|----------------|----------------|
G|----------|-------|-------|-------|-------|----------------|----------------|
D|----------|-------|-------|-------|-------|----------------|----------------|
A|----------|--2----|-------|-------|-------|----------------|----------------|
E|----------|-------|--4----|--3----|--2----|----------------|----------------|
B|--3-------|-------|-------|-------|-------|--0--------0----|--2--------2----|


C|----------------------------|----------------------------|
G|----------------------------|----------------------------|
D|----------------------------|----------------------------|
A|----------------------------|----------------------------|
E|----------------------------|--0--0--0--0--0--0--0--0----|
B|--3-----3--3--3-----3-------|----------------------------|


C|----------------------------|-------|-------|-------||
G|----------------------------|-------|-------|-------||
D|----------------------------|-------|-------|-------||
A|----------------------------|--0----|--(0)--|--(0)--||
E|--0--0--0--0--0--0--0--0----|-------|-------|-------||
B|----------------------------|-------|-------|-------||

Tabbed by Jack Schwenke

            
            
Suggest correction
Creating personal tab
Creating personal tab
You can edit any tab online and save it as your Personal.

You can edit, replace or remove any tab part or add personal notes – all changes will be seen only by you.

Personal tabs can be accessed anytime from any device, even offline.
Learn more »
Give kudos to tab author, rate the tab!
1 2 3 4 5
comments
print report bad tab
guest
You may want to rate the tab now too:
select rating
Wanna post a correction for this tab? Suggest correction