Oops, an error
Loading. Please wait.

Enigma Machine tab

version 1
version 1

Whole song

Interactive

725 views 9 this week
no commentswrite comment
1 2 3 4 5
x 3
add to favorites
×
Save as Personal and add changes to this tab that will be seen only by you. Learn more ›
×
You can save this tab as Personal to edit and correct it or add notes. All changes will be seen only by you. Learn more »
launch autoscroll
font size
0
reset
how to read this tab
guitar tuner
edit
Autoscroll
slow
fast
+/-
esc
set tempo
stop
Author
Difficulty
Dream Theater - Enigma Machine
Tuning - 7 string Standard (B,E,A,D,G,B,E)


[Intro]

  100BPM
  7/8                                                          5/8
    q    q    q    e    q    q    q.       q    q    q    e     q    q.
E||-------------------|------------------|--------------------|------------|
B||-------------------|------------------|--------------------|------------|
G||-------------------|------------------|--------------------|------------|
D||-------------------|------------------|--------------------|------------|
A||-4----7----6----10-|-4----7----3------|-4----7----6----11--|-10---------|
E||-4----7----6----10-|-4----7----3------|-4----7----6----11--|-10---------|
B||-2----5----4----8--|-2----5----1------|-2----5----4----9---|-8---<4>----|

  7/8                 6/8                 7/8                 6/8
   q    q    q    e    q    q    s s s s   q    q    q    e    e  e  e  e  e  e
E|-------------------|-------------------|-------------------|-------------------|
B|-------------------|-------------------|-------------------|-------------------|
G|-------------------|-------------------|-------------------|-------------------|
D|-------------------|-------------------|-------------------|-------------------|
A|-4----7----6----10-|-4----7------------|-4----7----6----3--|-------------------|
E|-4----7----6----10-|-4----7----------3-|-4----7----6----3--|-3--5--6--------4--|
B|-2----5----4----8--|-2----5----1-2-4---|-2----5----4----1--|----------4--5-----|


   e  e  e  e  e  e    e  e  e  e  e  e    e  e  e   e   e  e    e  e  e  q.
E|-------------------|-------------------|---------------------|------------------|
B|-------------------|-------------------|---------------------|------------------|
G|-------------------|-------------------|---------------8--9--|-------7--11------|
D|-------------------|----4--5--7--8-----|----6--10--11--------|-7--8-------------|
A|-3--4--6--7--------|-5--------------6--|-7-------------------|------------------|
E|-------------5--6--|-------------------|---------------------|------------------|
B|-------------------|-------------------|---------------------|------------------|

  8/8
   +w              e  e   e  e  e  e  e  e    e  e  e  e  e  e  e  e 
E|---------------|--------------------------|-------------------------|
B|---------------|--------------------------|-------------------------|
G|-(11)----------|--------------------------|-------------------------|
D|---------------|-8--10--9--7--6--8--7--5--|-4--6--5--3--2--4--1-----|
A|---------------|--------------------------|----------------------2--|
E|---------------|--------------------------|-------------------------|
B|---------------|--------------------------|-------------------------|


Guitar 2 (Synth)
   s  s  s  s  s  s  s  s  s  s  s  s  s  s  s s    s  s  s  s  s  s  s s  s  s s  s e  e  
E|-18-14-------------------16-12------------------|-14-10------------------12-8------------||
B|------------------------------------------------|----------------------------------------||
G|-------19-15-------10-14-------17-13-------8-12-|-------15-11-------6-10------13-9-8-----||
D|------------------------------------------------|-------------------------------------9--||
A|-------------12-16-------------------10-14------|-------------10-14----------------------||
E|------------------------------------------------|----------------------------------------||
B|------------------------------------------------|----------------------------------------||


[Main riff]

   8/8                            7/8             8/8
    q  q  e e e e    q   q  h      e  e  e  h      q   e  e  e  e  e  e     q   q  e q.
E||---------------|--------------|---------------|-----------------------|---------------|
B||---------------|--------------|---------------|-----------------------|---------------|
G||---------------|--------------|---------------|-----------------------|---------------|
D||-----------2-1-|-(1)-----0----|-------5-------|-----------------------|---------------|
A||---------1-----|------2-------|-1--2-----4----|-----------------2--1--|-(1)-----------|
E||-0--2--3-------|--------------|---------------|-0---1--2--3--0--------|------0--5-3---|
B||---------------|--------------|---------------|-----------------------|---------------|

  7/8               8/8                            6/8
   e  e  e  e  q.    q  q  e e e e    q   q  h      e  e  e  q.     e  e  e  q.
E|-----------------|---------------|--------------|---------------|--------------|
B|-----------------|---------------|--------------|---------------|--------------|
G|-----------------|---------------|--------------|---------------|--------------|
D|-----------------|-----------2-1-|-(1)-----0----|-------5-------|--------------|
A|-----------------|---------1-----|------2-------|-1--2-----4----|-1--2---------|
E|----------3------|-0--2--3-------|--------------|---------------|-------3------|
B|-0--3--4-----2---|---------------|--------------|---------------|----------4---|

  8/8            
   q   e  e  e  e  e  e     q   q  e q.     e  e  e  e  e  e  e  e    q  q  e e e e    q   q  h
E|-----------------------|----------------|-------------------------|---------------|--------------|
B|-----------------------|----------------|-------------------------|---------------|--------------|
G|-----------------------|----------------|-------------------------|---------------|--------------|
D|-----------------------|----------------|-------------------------|-----------5-4-|-(4)-----3----|
A|-----------------2--1--|-(1)------------|-------------------------|---------4-----|------5-------|
E|-0---1--2--3--0--------|------0--5-3----|----------3--------2--6--|-3--5--6-------|--------------|
B|-----------------------|----------------|-0--3--4-----2--5--------|---------------|--------------|

  7/8            8/8                                     7/8               8/8
   e  e  e  h     q   e  e  e  e  e  e     q   q  e q.    e  e  e  e  q.    q  q  e e e e
E|--------------|-----------------------|---------------|-----------------|---------------|
B|--------------|-----------------------|---------------|-----------------|---------------|
G|--------------|-----------------------|---------------|-----------------|---------------|
D|--------------|-----------------------|---------------|-----------------|-----------2-1-|
A|--------------|-----------------5--4--|-(4)-----3-1---|-----------------|---------1-----|
E|-------6------|-3---4--5--6--3--------|------3--------|----------3------|-0--2--3-------|
B|-2--3-----5---|-----------------------|---------------|-0--3--4-----2---|---------------|

                 7/8             8/8   
    q   q  h      e  e  e  h      q   e  e  e  e  e  e     q   q  e q.    e q  e h
E|--------------|---------------|-----------------------|---------------|---------------||
B|--------------|---------------|-----------------------|---------------|---------------||
G|--------------|---------------|-----------------------|---------------|---------------||
D|-(1)-----0----|-------5-------|-----------------------|---------------|---------------||
A|------2-------|-1--2-----4----|-----------------2--1--|-(1)-----------|-6-4-----------||
E|--------------|---------------|-0---1--2--3--0--------|------0--5-3---|---------------||
B|--------------|---------------|-----------------------|---------------|------5-4------||
                                                                                 .

[Pre-solo]

   7/8               8/8            7/8                 8/8          7/8
    (h)    e  e  e    w              +h       e  e  e    w            +h    e  e   e
E||-----------------|--------------|-------------------|------------|------------------|
B||-----------------|--------------|-------------------|------------|-------8--10--11--|
G||-----------------|--------------|-------------------|------------|------------------|
D||--------5--7--8--|--------------|-------------------|------------|------------------|
A||-----------------|-6------------|-(6)------4--6--7--|------------|------------------|
E||-----------------|--------------|-------------------|-5----------|-(5)--------------|
B||-----------------|--------------|-------------------|------------|------------------|

  12/8                                  8/8
   q.    s  s  q.        s   s  h        e  e   e   q     e   e  e     e   e   e   e   h
E|-------------------------------------|-9--11--12------------9------|-11------12------12b(15)rbr---|
B|-------8-----10b(11)--r10--8--10v----|------------11----11-----11--|-----11------11---------------|
G|-8--------8--------------------------|-----------------------------|------------------------------|
D|-------------------------------------|-----------------------------|------------------------------|
A|-------------------------------------|-----------------------------|------------------------------|
E|-------------------------------------|-----------------------------|------------------------------|
B|-------------------------------------|-----------------------------|------------------------------|


   e   e   e   q.    e   e       e     e    q     e    q.       e   e   e   q    q.
E|-15--17--18--------15-(15)--|-(15)---15--(15)---15--(15)----|-----------------------------|
B|-------------16--------16---|-(16)--(16)--16---(16)--16-----|-14--16--17------------------|
G|----------------------------|-------------------------------|-------------14--------------|
D|----------------------------|-------------------------------|------------------17b(19)----|
A|----------------------------|-------------------------------|-----------------------------|
E|----------------------------|-------------------------------|-----------------------------|
B|----------------------------|-------------------------------|-----------------------------|


   +w                   e   e   e   q.    e     e        e     e    q       e    q.
E|--------------------|-14--16--17--------14---(14)---|-(14)---14--(14)-----14--(14)-----|
B|--------------------|-------------13---(13)---13----|-(13)--(13)--13-----(13)--13------|
G|--------------------|-------------------------------|----------------------------------|
D|-(19)rbrbrbrbr------|-------------------------------|----------------------------------|
A|--------------------|-------------------------------|----------------------------------|
E|--------------------|-------------------------------|----------------------------------|
B|--------------------|-------------------------------|----------------------------------|


   e   e   e   h         +e           
E|-20--22--23--23b(25)--r(23)-|-22v----------||
B|----------------------------|--------------||
G|----------------------------|--------------||
D|----------------------------|--------------||
A|----------------------------|--------------||
E|----------------------------|--------------||
B|----------------------------|--------------||


[Duel Guitar/Keyboard solo] 

   8/8                             6/8                     8/8
    e   e   e   e   e   e   q       e   e   e   e   q       e   e   e   e   e   e   q
E||-------------16--15------------|-----------------------|-------------------------------|
B||---------17----------16--------|---------16--17--16----|-------------14--13------------|
G||-----18------------------15----|-----18----------------|---------14----------13--------|
D||-18----------------------------|-19--------------------|-----16------------------13----|
A||-------------------------------|-----------------------|-16----------------------------|
E||-------------------------------|-----------------------|-------------------------------|
B||-------------------------------|-----------------------|-------------------------------|

                                        4/8                     
              |---3---|                  |----3---||----3----|
   e   e   e   s  s  s  e   e   e   e     e  e   e  e   e   e
E|------------------------------12--11--|-9---------------------|
B|--------------------------------------|----10-----------------|
G|---------14--13h14p13\12--13----------|--------9--------------|
D|-----14-------------------------------|-----------11------11--|
A|-16-----------------------------------|---------------12------|
E|--------------------------------------|-----------------------|
B|--------------------------------------|-----------------------|

  12/8                                          
   q    e  e   e   e   e   e   e   e   e   e   
E|---------------------------------------------|
B|---------------------------------------------|
G|---------------------------------------------|
D|-10v-------------11--10--11--13--14------11--|
A|------9--11--12----------------------11------|
E|---------------------------------------------|
B|---------------------------------------------|

  14/8
          |---3---||---3---|
   e   e   e  e  e  e  e  e  s  s  s  s  s  s  s  s  s  s  s  s  q
E|---------------------------17-16-15-14-------------------------------------|
B|------------------16-14-13-------------17-16-15-14-13-14-15-16-------------|
G|---------------------------------------------------------------13b(15)r13--|
D|-13--14--16-14-13----------------------------------------------------------|
A|---------------------------------------------------------------------------|
E|---------------------------------------------------------------------------|
B|---------------------------------------------------------------------------|

  8/8                                               
   s  s  s  s  s  s  s  s  s  s  s  s  s  s  s  s  
E|----------14-16-17-16-14-18-15----------15-18-15-|
B|-14-16-17----------------------16----16----------|
G|----------------------------------15-------------|
D|-------------------------------------------------|
A|-------------------------------------------------|
E|-------------------------------------------------|
B|-------------------------------------------------|

  14/8
              |---3--|                     
   s  s  s  s  s  s s  e  s s s s  s  s  t s  s  s  t  e  s  s  s  s  q
E|-17-12----17\12-9-----------8-11-------9---------------------------------|
B|-------14---------10------9------10-12---12-10-9-------------------------|
G|---------------------9--8------------------------11----------------------|
D|----------------------------------------------------11--10-11-12-13------|
A|--------------------------------------------------------------------11---|
E|-------------------------------------------------------------------------|
B|-------------------------------------------------------------------------|

 
   s  s  s  s  s  s  s  s  s  s  s  s  s  s  s  s  s  s  s  s  s  s  s  s  q
E|-------------------------------------------------------------17-19-17----18---|
B|-------------------------------------17-16-15-14----19-21-22----------22------|
G|----------11-13-14-13-11-12-13-14-15-------------21---------------------------|
D|-11-13-14---------------------------------------------------------------------|
A|------------------------------------------------------------------------------|
E|------------------------------------------------------------------------------|
B|------------------------------------------------------------------------------|
 
  8/8
   s  s  s  s  s  s  s  s  s  s  s  s  s  s  s  s    s  s  s  s  s  s  s  s  s  s  s  s  s  s  s  s
E|-16-17-16-14-------------------------------------|-------12-16/21-16-------------15-18-23-18------|
B|-------------16-14-13-16-14-13-------------------|----14-------------17-------16------------20----|
G|-------------------------------14-13-11-14-13-11-|-13-------------------18-15------------------20-|
D|-------------------------------------------------|------------------------------------------------|
A|-------------------------------------------------|------------------------------------------------|
E|-------------------------------------------------|------------------------------------------------|
B|-------------------------------------------------|------------------------------------------------|

  12/8
   s  s s  s s  s s  s  s s s s  s  s  s  s  s  s  s  s s  s s s
E|---------9-12-9-11-12-----8-11-16-11----------------------------||
B|------10----------------9------------13----13-11----------------||
G|----9-----------------8-----------------13-------11-8-----------||
D|-11---------------------------------------------------10-8-6----||
A|-------------------------------------------------------------9--||
E|----------------------------------------------------------------||
B|----------------------------------------------------------------||


[Breakdown]

Guitar 1
     6/8                                                     5/8
    h     s s e    h      e  e    s s s s s s s s s s s s   s s s s s s s s s s
E||--------------|--------------|-------------------------|---------------------|
B||--------------|--------------|-------------------------|---------------------|
G||--------------|--------------|-------------------------|---------------------|
D||--------------|--------9-----|-------------------------|---------------------|
A||-8-----9-8-6--|-8------9--9--|-----6-8-------6-9-8-6-7-|-8-------------------|
E||-8-----9-8-6--|-8------7--9--|---8-----8---8-----------|---8---9---8-6-7-----|
B||-6-----7-6-4--|-6---------7--|-6---------6-------------|-----6---6-------9-7-|

  6/8                                                     7/8
   h     s s e    h      e  e    s s s s s s s s s s s s   s s s s s s s s s s s s s s
E|--------------|--------------|-------------------------|-----------------------------|
B|--------------|--------------|-------------------------|-----------------------------|
G|--------------|--------------|-------------------------|-----------------------------|
D|--------------|--------9-----|-------------------------|-----------------------------|
A|-8-----9-8-6--|-8------9--9--|-----6-8-------6-9-8-6-7-|-8---------------------------|
E|-8-----9-8-6--|-8------7--9--|---8-----8---8-----------|---8---9---8-6-7-------------|
B|-6-----7-6-4--|-6---------7--|-6---------6-------------|-----6---6-------9-7-5-6-3-0-|

  6/8                                                   5/8
   h    s s e    h     e  e    s s s s s s s s s s s s   s s s s s s s s s s
E|-------------|-------------|-------------------------|---------------------|
B|-------------|-------------|-------------------------|---------------------|
G|-------------|-------------|-------------------------|---------------------|
D|-------------|-------5-----|-------------------------|---------------------|
A|-4----5-4-2--|-4-----5--5--|-----2-4-------2-5-4-2-3-|-4-------------------|
E|-4----5-4-2--|-4-----3--5--|---4-----4---4-----------|---4---5---4-2-3-----|
B|-2----3-2-0--|-2--------3--|-2---------2-------------|-----2---2-------5-3-|

  6/8                                                   7/8
   h    s s e    h     e  e    s s s s s s s s s s s s   s s s s s s s s s s s s s s
E|-------------|-------------|-------------------------|-----------------------------||
B|-------------|-------------|-------------------------|-----------------------------||
G|-------------|-------------|-------------------------|-----------------------------||
D|-------------|-------5-----|-------------------------|-----------------------------||
A|-4----5-4-2--|-4-----5--5--|-----2-4-------2-5-4-2-3-|-4---------------------------||
E|-4----5-4-2--|-4-----3--5--|---4-----4---4-----------|---4---5---4-2-3-------------||
B|-2----3-2-0--|-2--------3--|-2---------2-------------|-----2---2-------5-3-2-0-2-3-||


[Synth Solo 1]

   6/8                     5/8               6/8                      5/8
    e   s e  e  s s s s s   s e  e  s s s e    e   s e  e  s s s s s   s e  e  s s s e  x2
E||-----------------------|------------------|-----------------------|------------------||
B||-----------------------|------------------|-----------------------|------------------||
G||-----------------------|------------------|-----------------------|------------------||
D||-----------------------|------------------|-----------------------|------------------||
A||-------7-------8-7-5-6-|-7----------------|-------7-------8-7-5-6-|-7----------------||
E||-0---0----0--0---------|---0--8--7-5-7----|-0---0----0--0---------|---0--7--5-4-5----||
B||-----------------------|---------------6--|-----------------------|---------------3--||
        x                                          x                   

[Guitar Solo 1]

Guitar 1 w/ wah
   4/4 
    e.   e   s  s  s  s  s  s  s  s  e.     s  s  s  s  s  s   s  s  s  s  s  q         +s
E||---------------------------------------|----------12-15----/18-15-------------------------|
B||-14---14-----11-12-14-15-14-12-11------|-------14-------14--------17-------17b(19)---(19)-|
G||----------11---------------------------|-12-15-----------------------18-15----------------|
D||----------------------------------14---|--------------------------------------------------|
A||---------------------------------------|--------------------------------------------------|
E||---------------------------------------|--------------------------------------------------|
B||---------------------------------------|--------------------------------------------------|


   t  t  t  t t  t  t  t t  t  t  t t t  t t s  s  e              s  s  s   s
E|---------------------------------------------------------------------15-------|
B|-14h15p14p0-12h14p12p0-11h12p11-0-8h11p8p0-7--8--5b(7)r(5)b(7)--7--8------15--|
G|------------------------------------------------------------------------------|
D|------------------------------------------------------------------------------|
A|------------------------------------------------------------------------------|
E|------------------------------------------------------------------------------|
B|------------------------------------------------------------------------------|


   s  s  s  s  s  s  s  s  s  s  s  s  s  s  s  s  
E|----------14----12-------------15-------12------|
B|-14-12----------------15-14---------------------|
G|-------11----11----11-------12----12-\9----9-\6-|
D|------------------------------------------------|
A|------------------------------------------------|
E|------------------------------------------------|
B|------------------------------------------------|

      |--3-||---3---||---3---||---3--||---3----|                          |---3--|
   s s t t t t  t  t  t  t  t  t  t  t  t   t  t  t  t  t  t  t   s  t  t  t  t  t  s  t  t  t  t  t
E|-9-------------------------------------------12-14-15-14-12-14-/18-14------------------------------|
B|-------7-8-10-10/11-11/12-12p11p10h11h12-/15--------------------------14---------------------------|
G|---6-9-------------------------------------------------------------------15------------------------|
D|----------------------------------------------------------------------------16----------14-16-14---|
A|-------------------------------------------------------------------------------17-13-16----------16|
E|---------------------------------------------------------------------------------------------------|
B|---------------------------------------------------------------------------------------------------|

  3/4                                      2/4
   s  s  t  s  s  s  s  s  s  s  s  s  t    h  
E|----------------18-15----------21-18----|--------||
B|----17----------------17-------------20-|--------||
G|-------18-15-18----------18-15----------|-21-----||
D|-16-------------------------------------|--------||
A|----------------------------------------|--------||
E|----------------------------------------|--------||
B|----------------------------------------|--------||


Guitar 2
   4/4
    e  s e  e  s s s s s s e  s   +s  s s s e  e  s e  e  s s s   s s s e  e  s s s e  e  s s
E||-----------------------------|-------------------------------|-----------------------------|
B||-----------------------------|-------------------------------|-----------------------------|
G||-----------------------------|-------------------------------|-----------------------------|
D||------4-------5-4-2-3-4------|-------------------4-------5-4-|-2-3-4---------------------4-|
A||---------------------------5-|-(5)-4-2-4---------------------|----------4--2-1-2-----------|
E||-2--2----2--2-----------2----|-----------3--2--2----2--2-----|-------2-----------0--2--2---|
B||-----------------------------|-------------------------------|-----------------------------|
       x                                          x                                       x
                                                                 3/4              2/4
   +s  e  s s s s s s e  e  s s s   e  e  s e  e  s s s s s s s   +e   q  e e e    q  (q)
E|--------------------------------|-----------------------------|----------------|--------||
B|--------------------------------|-----------------------------|----------------|--------||
G|--------------------------------|-----------------------------|----------------|--------||
D|-(4)------5-4-2-3-4-------------|---------4-------5-4-2-3-4---|----------------|--------||
A|-----------------------5--4-2-4-|-----------------------------|------4--2-1-2--|--------||
E|-----2--2-----------2-----------|-3--2--2----2--2-----------2-|-(2)------------|-0------||
B|--------------------------------|-----------------------------|----------------|--------||
                                          x                                        .

[Synth Solo 2]

   6/8                     5/8               6/8                      5/8
    e   s e  e  s s s s s   s e  e  s s s e    e   s e  e  s s s s s   s e  e  s s s e  x2
E||-----------------------|------------------|-----------------------|------------------||
B||-----------------------|------------------|-----------------------|------------------||
G||-----------------------|------------------|-----------------------|------------------||
D||-----------------------|------------------|-----------------------|------------------||
A||-----------------------|------------------|-----------------------|------------------||
E||-------7-------8-7-5-6-|-7-------2-0-2----|-------7-------8-7-5-6-|-7-------------5--||
B||-0---0----0--0---------|---0--6--------1--|-0---0----0--0---------|---0--7--5-4-5----||
        x                                          x


[Guitar Solo 2]

Guitar 1 w/ wah
   4/4
    s  s  s  s  s  s  s  s  s  s  s  s  s  s  s  s    
E||-21-21-21-21-21-21-21-21-21-21-21-21-21-21-21-21-|
B||-------------------------------------------------|
G||-------------------------------------------------|
D||-------------------------------------------------|
A||-------------------------------------------------|
E||-------------------------------------------------|
B||-------------------------------------------------|


   s  s  t  t  s  s  s  s  s  s  s  s  s  s  s  s  s
E|-21-19-17h19-19-21-19-17-19-17-16-17-19-17-16-17-16-|
B|----------------------------------------------------|
G|----------------------------------------------------|
D|----------------------------------------------------|
A|----------------------------------------------------|
E|----------------------------------------------------|
B|----------------------------------------------------|

  3/4                                   4/4
   s  s  s  s  s  s  s  s  s  s  s  t  t    s  s  s  s  s  s  s  s  s  s  s  s  s  s  s  s
E|-14-16-17-16-14-16-14-13-14-16-14-13h14-|-13----------------------------------------------|
B|----------------------------------------|----15-14-15-18-15-14-15-14-13-14-15-14-12-14-12-|
G|----------------------------------------|-------------------------------------------------|
D|----------------------------------------|-------------------------------------------------|
A|----------------------------------------|-------------------------------------------------|
E|----------------------------------------|-------------------------------------------------|
B|----------------------------------------|-------------------------------------------------|

                                              3/4
   s  s  s  s  s  s  s  s s  s  s  s s  s s s   s  s s s s s s s s s s s
E|--------------------------------------------|--------------------------|
B|-12-12-14-12-10-12-10-9-10-12-10-9-10-9-7-9-|-10-9-7-9-7-6-7-9-7-6-5-4-|
G|--------------------------------------------|--------------------------|
D|--------------------------------------------|--------------------------|
A|--------------------------------------------|--------------------------|
E|--------------------------------------------|--------------------------|
B|--------------------------------------------|--------------------------|

 4/4
   s s s s s s s s q.            s s   e  e  e  q          e  e  e
E|-----------------------------------|------------------------------|
B|-----------------------------------|----------8b(9)r(8)--5--------|
G|---------------------------------5-|-6--5--6----------------6--5--|
D|-6-6-6-6-6-6-6-6-6b(7)r(6)----/7---|------------------------------|
A|-----------------------------------|------------------------------|
E|-----------------------------------|------------------------------|
B|-----------------------------------|------------------------------|

 3/4                        4/4
   q           e  e  e  e    e  e  e  e  e   e  e   e     e   e   s  s  s  s  s  s  s  s  s  s  s  s  
E|----------------------9--|-8--5--------10--7-----/13--|-10------------------10-11-12-13-16-15-14-13|
B|-8b(10)r(8)--------------|-------6------------9-------|--------------------------------------------|
G|-------------9--6--5-----|----------6-----------------|-----13--10-11-12-13------------------------|
D|-------------------------|----------------------------|--------------------------------------------|
A|-------------------------|----------------------------|--------------------------------------------|
E|-------------------------|----------------------------|--------------------------------------------|
B|-------------------------|----------------------------|--------------------------------------------|

 3/4
   s  s  s  s  s  s  s  s  s  s  s  s
E|-------------19-18-17-16-22-21-20-19-||
B|-15-14-13-12-------------------------||
G|-------------------------------------||
D|-------------------------------------||
A|-------------------------------------||
E|-------------------------------------||
B|-------------------------------------||


Guitar 2
   4/4                               3/4            4/4
    e e e q  e e e   e e e e e q  e   +e  e e e q    q  e q  e e e   e e e e e e e e
E||----------------|----------------|--------------|---------------|------------------|
B||----------------|----------------|--------------|---------------|------------------|
G||----------------|----------------|--------------|---------------|------------------|
D||----------------|----------------|--------------|---------------|------------------|
A||-------4--------|-5-4-2-3-4------|--------------|------4--------|-5-4-2-3-5--------|
E||----------------|--------------5-|-(5)-4-2-4----|---------------|---------------4--|
B||-2-2-2----2-2-2-|-----------2----|-----------3--|-2--2----2-2-2-|-----------2-2----|

3/4
   e e e e e e x2
E|-------------||
B|-------------||
G|-------------||
D|-------------||
A|-------------||
E|-4-2-1-2-1---||
B|-----------0-||


[Interlude]

Guitar 1 w/ wah
  4/4
    q   q   h         q   q   h        q       e  e  q   q            q   e.     t t t t  +q.   +s 
E||-----------------|----------------|------------------------------|------------8---8--------------|
B||-----------------|----------------|------------------------------|-------------------------------|
G||-9---5---8-------|-9---4---7------|-8b(9)---5--4--1---5b(7)r(5)--|-0---7b(9)----9---9wd(7)---(7)-|
D||-----------------|----------------|------------------------------|-------------------------------|
A||-----------------|----------------|------------------------------|-------------------------------|
E||-----------------|----------------|------------------------------|-------------------------------|
B||-----------------|----------------|------------------------------|-------------------------------|
        
                                                                                    2/4
   q    q   h          q    q   h          q.   e   q     q      q.   e   q    q      h
E|-12---8---11-------|-12---7---10-------|-13---10--12----17---|-19---15--18---21---|-19-----||
B|-------------------|-------------------|---------------------|--------------------|--------||
G|-------------------|-------------------|---------------------|--------------------|--------||
D|-------------------|-------------------|---------------------|--------------------|--------||
A|-------------------|-------------------|---------------------|--------------------|--------||
E|-------------------|-------------------|---------------------|--------------------|--------||
B|-------------------|-------------------|---------------------|--------------------|--------||


[Fill]

  8/8
    q  q  e e e e   +w
E||---------------|------------||
B||-----------5-4-|-(4)--------||
G||---------3-----|------------||
D||-2--4--5-------|------------||
A||---------------|------------||
E||---------------|------------||
B||---------------|------------||
    x  x  x

Repeat Intro


[Pre-Outro]

   7/8               8/8            7/8                 8/8          7/8
    (h)    e  e  e    w              +h       e  e  e    w            +h    e  e   e
E||-----------------|--------------|-------------------|------------|------------------|
B||-----------------|--------------|-------------------|------------|-------8--10--11--|
G||-----------------|--------------|-------------------|------------|------------------|
D||--------5--7--8--|--------------|-------------------|------------|------------------|
A||-----------------|-6------------|-(6)------4--6--7--|------------|------------------|
E||-----------------|--------------|-------------------|-5----------|-(5)--------------|
B||-----------------|--------------|-------------------|------------|------------------|

  12/8                                  8/8
   q.    s  s  q.        s   s  h        e  e   e   q     e   e  e     e   e   e   e   h
E|-------------------------------------|-9--11--12------------9------|-11------12------12b(15)rbr---|
B|-------8-----10b(11)--r10--8--10v----|------------11----11-----11--|-----11------11---------------|
G|-8--------8--------------------------|-----------------------------|------------------------------|
D|-------------------------------------|-----------------------------|------------------------------|
A|-------------------------------------|-----------------------------|------------------------------|
E|-------------------------------------|-----------------------------|------------------------------|
B|-------------------------------------|-----------------------------|------------------------------|


   e   e   e   q.    e   e       e     e    q     e    q.       e   e   e   q    q.
E|-15--17--18--------15-(15)--|-(15)---15--(15)---15--(15)----|-----------------------------|
B|-------------16--------16---|-(16)--(16)--16---(16)--16-----|-14--16--17------------------|
G|----------------------------|-------------------------------|-------------14--------------|
D|----------------------------|-------------------------------|------------------17b(19)----|
A|----------------------------|-------------------------------|-----------------------------|
E|----------------------------|-------------------------------|-----------------------------|
B|----------------------------|-------------------------------|-----------------------------|


                      Half Speed
                      6/8
   +w                   e   e   e   e   e   e      e   e   e   e   e   e   
E|--------------------|-14--16--17------14-(14)--|-20--22--23------20-(20)--||
B|--------------------|-------------13-(13)-13---|-------------19-(19)-19---||
G|--------------------|--------------------------|--------------------------||
D|-(19)rbrbrbrbr------|--------------------------|--------------------------||
A|--------------------|--------------------------|--------------------------||
E|--------------------|--------------------------|--------------------------||
B|--------------------|--------------------------|--------------------------||


[Outro]

Guitar 1
  7/8                                                          6/8
    q    q    q    e    q    q    q.       q    q    q    e     q    q    s s s s
E||-------------------|------------------|--------------------|-------------------|
B||-------------------|------------------|--------------------|-------------------|
G||-------------------|------------------|--------------------|-------------------|
D||-------------------|------------------|--------------------|-------------------|
A||-------------------|------------------|--------------------|-------------------|
E||-------------------|------------------|--------------------|-----------------3-|
B||-2----5----4----8--|-2----5----1------|-2----5----4----8---|-2----5----1-2-4---|

 7/8
   q    q    q     e    q    q    q.       e  e  e  e  e  e  e   
E|--------------------|------------------|----------------------|----------------------|
B|--------------------|------------------|----------------------|----------------------|
G|--------------------|------------------|----------------------|----------------------|
D|--------------------|------------------|----------------------|----------------------|
A|--------------------|------------------|----------------------|-------------------3--|
E|--------------------|------------------|----------------------|-3--5--6--------4-----|
B|-2----5----4-----8--|-2----5----1------|-2--4--5--1--2--4--5--|----------4--5--------|

                                               6/8                            8/8
          e  e  e  e  e  e  e    e  e  e  e  e  e  e    e  e  e  e  e  e    h.       w 
E|----------------------|----------------------|-------------------|--------|----------|
B|----------------------|----------------------|-------------------|--------|----------|
G|----------------------|-------------------5--|-6--8--9--------7--|-6------|----------|
D|-------------------4--|-5--7--8--------6-----|----------7--8-----|--------|----------|
A|-4--6--7--------5-----|----------6--7--------|-------------------|--------|-4--------|
E|----------5--6--------|----------------------|-------------------|--------|-4--------|
B|----------------------|----------------------|-------------------|--------|-2--------|
                                                                             fade out

Guitar 2
  7/8              6/8   7/8
                           Tremolo picking
E||----|-----|-----|-----|-9---12---11---15--|-9---12---8-----||
B||----|-----|-----|-----|-------------------|----------------||
G||----|-----|-----|-----|-------------------|----------------||
D||----|-----|-----|-----|-------------------|----------------||
A||----|-----|-----|-----|-------------------|----------------||
E||----|-----|-----|-----|-------------------|----------------||
B||----|-----|-----|-----|-------------------|----------------||


*******************************************************************************

Legend

b(n) - bend to specified pitch eg 7b(8)
(n)r - release bend
/ - slide up
\ - slide down
x - palm mute
. - staccato note
h - hammer on
p - pull off
t - tap
(n) - ghost note
 - pinch harmonic
[n] natural harmonic

NOTE VALUES
w - whole note
w. - dotted whole note
h - half note
h. - dotted half note
q - quarter note
q. - dotted quarter note
e - eighth note
e. - dotted eighth note
s - sixteenth note
s. dotted sixteenth note
t - thirtysecond note
t. - dotted thirtysecond note
a - sixtyfourth note
a.  -dotted sixtyfourth note
|-3-| - triplets

*******************************************************************************

            
            
Suggest correction
Creating personal tab
Creating personal tab
You can edit any tab online and save it as your Personal.

You can edit, replace or remove any tab part or add personal notes – all changes will be seen only by you.

Personal tabs can be accessed anytime from any device, even offline.
Learn more »
Give kudos to tab author, rate the tab!
1 2 3 4 5
comments
print report bad tab
guest
You may want to rate the tab now too:
select rating
Wanna post a correction for this tab? Suggest correction