Oops, an error
Loading. Please wait.

Erotomania bass

version 1
version 1

Whole song

20,778 views 57 this week
1 commentread comment
1 2 3 4 5
x 12
add to favorites
×
Save as Personal and add changes to this tab that will be seen only by you. Learn more ›
×
You can save this tab as Personal to edit and correct it or add notes. All changes will be seen only by you. Learn more »
launch autoscroll
font size
0
reset
guitar tuner
backing track
0:00
0:00
edit
Autoscroll
slow
fast
+/-
esc
set tempo
stop
Author
Unregistered
[Intro]
G|-----------|
D|-----------|
A|-----------|
E|-----------|

[Verse]
G|---------------------------------------------------------------------------|
D|*--------------------------------------------------------------------------|
A|*--------------2--5--4----------------------4--7--6----------------------2-|
E|---2--3--4--5-----------3----0--4--5--6--7-----------5----0--2--3--4--5----|

G|-------------------------------------------|-|
D|------------------------------------------*|-|
A|-5--4----------------------4--7--6--------*|-|
E|-------3----0--4--5--6--7-----------5--0---|-|

G|---------------------------------------------------------------------------|
D|*-----------9--8-----6-(6)\-------7--6-----5--------------------9--8-----6-|
A|*--7-----7--------7---------4--5--------------3--------7-----7--------7----|
E|------0---------------------------------3--------1--------0----------------|

G|-------|-----------------------------------------------------|
D|(6)\---|-3--5--7-----------1--3--5--------------------------*|
A|-------|----------5--(5)\-----------3----(3)\-----4--3--2---*|
E|-------|-----------------------------------------------------|

G|-----------------------------------|                   
D|--3--5--7--------------------------|                
A|-----------5----(5)\---4--4--3--2--|                 
E|-----------------------------------|                    

G|----------------------------------|
D|*--------------------------------*|
A|*--------------------------------*|
E|---3---2---1---0---3---2----1-0---|

G|----------------------------------------|
D|*--------------------------------------*|
A|*--------------------------------------*|
E|---3-rr-2-rr-1-rr-0-rr-3-rr-2-r-1-r-0---|

G|-------------------------------------------------|------------------|
D|*-----------------------------------------------*|------------------|
A|*-----------------------------------------------*|------------------|
E|---3-3-3-2-2-2-1-1-1-0-0---3-3-3-2-2-2-1-1-0-0---|--3--2----1-------|

(4x)
G|---------------------------------------------------------------|
D|*-------------------------------------------------------------*|
A|*--------------2--5--4----------------------4--7--6-----------*|
E|---2--3--4--5-----------3----0--4--5--6--7-----------5----0----|

G|-----------------------------------------------------------------------|
D|*----------------------------------4----------------------------------*|
A|*----------2-2-----------2/4-4-6-6----------2--------------2-2-4-4----*|
E|---4-4-2-4-----4-2-4-4-4--------------4-4-2------4-2-4-4-4---------2---|

G|------------------------1--------------------------------------------------|
D|--------1-1-------1---2---4-2-1------------------------------------------2-|
A|2-2-1-2-----4-2-4---4-----------2-1----------------------------------------|
E|-------------------------------------2--0-0-2-4-4-2-0--2-4--4/6--4--2--4---|

G|---------------------------------------------------------------------------|
D|--2-1----------------------------------------------------------------------|
A|------4-2-1---2--1-2-2/4--2-1----------------------------------------------|
E|4-----------4-----------------2--4-2-4---r---4-2-4--4/6--6-4-6--r--7--6--7-|

G|---------------------------------------------------------------------------|
D|---------------------------------------------------------------------------|
A|---------------------------------------------------------------------------|
E|-r--7--6--7--7/9--7-6-4--2---0-0-0-0-0-0-0-2/4-2-2-2-2-2-2-2-4/6-4-4-4-4-4-|

G|---------------------------------------------------------------------------|
D|---------------------------------------------------------------------8----9|
A|----------------------------------1--2----4-----(4)/-7----9----11----------|
E|4-4-6/7-6-6-6-6-6-6-6-2-4-2-4--4-------------------------------------------|

G|------------------8-----8---9----9---9----9--11----11----13---13--15----15-|
D|---9--11----11-------------------------------------------------------------|
A|---------------------------------------------------------------------------|
E|---------------------------------------------------------------------------|

(8x)
G|--------4--------4-4------|
D|*------------------------*|
A|*--2---------2--------2--*|
E|--------------------------|

G|---------------------------------------------------------------------------|
D|---------------------------------------------------------------------------|
A|-2----2----2----4---4----4---4-------------------------------------2----2--|
E|---------------------------------0---0----0---0---2---2----2---2-----------|

G|---------------------------------------------------------------------------|
D|---------------------------------------------------------------------------|
A|--2---4---4----4---4-------------------2---5--5--5---5-5--5--5--5---5--5--5|
E|-----------------------0----0--2----2--------------------------------------|

G|------------~~~----------------~~~~~~~--5----------------------------------|
D|-------~~~--4---------7-----7--7-----------7--5----------------------------|
A|--5-5--5-----------------------------------------7-\-5--------------0--1---|
E|-----------------5-------5------------------------------------2--3---------|

G|----------------~~~-------------------------5------------------------------|
D|----------------4----------7-------7--7--7-----7--5------------------------|
A|-1--3--3--5--5---------------------------------------7-\-------------------|
E|---------------------5--------5---------------------------3----3--3--3--3--|

G|---------------------------------------------------------------------------|
D|------------------------------------------(5)--3--2------------------------|
A|---------------------------------------------------------------------------|
E|3--3--3--3--3--3----3--3--3---3--3--3--3--------------3-r-3-3-3-3-3-3-3-3-3|

G|---------------------------------------------------------------------------|
D|-------------------------------------------------------------------3-2-0---|
A|-------------------------------------3-3-3-3-3-3-1-1-1-1-1-1-0-0-0---------|
E|-3-3-3-3-3-3-3-3-3-3-3-3-1-1-1-1-1-1-------------------------------------3-|

G|---------------------------------------------------------------------------|
D|------------------------------------------5-5-5-4-4-4-3-3-3-2-2-5-5-5-4-r-r|
A|---------------------------------------------------------------------------|
E|3-3-2-2-2-1-1-1-0-0--3-3-3-2-2-2-1-1-0-0-----------------------------------|

G|---------------------2-0---------------------------------------------------|
D|-3-r-3-2-2-2-1-r-r-r-----4-1--2--2--0--------------------------------------|
A|---------------------------------------3--2-------3-r-r-0-r-r--------------|
E|-----------------------------------------------0--------------0-r-r-3/-r-r-|

G|---------------------------------------------------------------------------|
D|----0----2---0--R--R----------------0--------------------------------------|
A|----------------------2---3---R--R-----2--2-2-2-2-2-2-----------------0-0-0|
E|-1----------------------------------------------------4-4-4-4-4-4-4-4------|

G|------------------------------------------5--7--9---------7--9--10---------|
D|-----------4-4-4-4-4-4-4-4-~~~~~~~~~--/9--------------11-------------------|
A|-0-0-0-0-0-----------------5-----------------------------------------10--(1|
E|---------------------------------------------------------------------------|

G|---------------------------------------------------------------------------|
D|-----2--r--0--r------------------------------------------------------------|
A|0)\--------------2--r----------1--1-1-1---1--1-1-1---1--1-1-1---1-1-/-3---3|
E|-----------------------4\--0-----------------------------------------------|

G|---------------------------------------------------------------------------|
D|--------------------------------------------------------------------0---0--|
A|-3-3---3-3--5--5-5-5-5-5--r--X--7---(7)\----------1----------(1)-----------|
E|------------------------------------------3--(3)---------------------------|

G|---------------------------------------------------------------------------|
D|--0-0-0--0-----------------------------------------------------------------|
A|------------------------------0---0----0-0-0--0----------------------------|
E|------------3--3----3-3-3--3---------------------0---0----0-0-0--0--1--1---|

G|-------------------------------------------|
D|---0----0----------------------------------|
A|-------------------------------------------|
E|1------------0------(0)------0------(0)----|

G|---------------------------------------------------------------------------|
D|*----------------------------------------2---------------------------------|
A|*------------------------------------2-4-----------------------------------|
E|---2-2-r-2-2-2-2-2-2-2-2-2-2-r-2-2-2--------2-2-r-2-2-2-2-2-2-2-2-2-2-r-2-2|

G|-----------|-----------------------------------|
D|----------*|-----------------------------------|
A|-0-0------*|-----------------------------------|
E|-----2-0---|--2-2-r-2-2-2-2-2-2-2-2-2-2-r-2-2--|

G|-----------------------------------------------------------------------|
D|---3--5--7-----------1--3--5-------------------------------------------|
A|------------5--(5)\-----------3-----------------------------6/8-10-10-1|
E|---------------------------------------(3)/8--6-6-8-8-10-10------------|

G|-------------12p10-12-12-14-15-17-r-19-20--------------------------------17|
D|-----8-10-10-------------------------------20p19h20p19-17h19h20-17-19-20---|
A|2-12-----------------------------------------------------------------------|
E|---------------------------------------------------------------------------|

G|-19-20-19-20----------------------------17-19-20-22-20-------------|
D|-------------20-19-17----------17-19-20----------------------------|
A|----------------------20-18-20--------------------------20-22-20-22|
E|-------------------------------------------------------------------|


************************************

| *    Natural harmonic
| r    Release
| /    Slide up
| ~    Vibrato
| \    Slide down
| (n)  Ghost note
| p    Pull-off
| h    Hammer-on

************************************

            
            
Suggest correction
Creating personal tab
Creating personal tab
You can edit any tab online and save it as your Personal.

You can edit, replace or remove any tab part or add personal notes – all changes will be seen only by you.

Personal tabs can be accessed anytime from any device, even offline.
Learn more »
comments
print report bad tab
1 comment total.
0 reply
Satan Man 1,286 Oct 23, 2006 08:54 AM

Fukin great tab dude

guest
Wanna post a correction for this tab? Suggest correction