Oops, an error
Loading. Please wait.
We have an official Forsaken tab made by UG professional guitarists. Check out the tab »
×
19,912 views 3 this week
3 commentsread comments
1 2 3 4 5
x 5
add to favorites
×
Save as Personal and add changes to this tab that will be seen only by you. Learn more ›
×
You can save this tab as Personal to edit and correct it or add notes. All changes will be seen only by you. Learn more »
launch autoscroll
font size
0
reset
how to read this tab
guitar tuner
backing track
0:00
0:00
edit
Autoscroll
slow
fast
+/-
esc
set tempo
stop
Difficulty
intermediate
-------------------------------------------------------------------------------
                             FORSAKEN INTRO - Dream Theater
-------------------------------------------------------------------------------
Tabbed by:Tordenstorm
Email:torden_storm@yahoo.com

Tuning:standard


| /  slide up
| \  slide down
| h  hammer-on
| p  pull-off
| ~  vibrato
|<#>  harmonic
| x  Mute note


e|----------------------------------------------------|
B|----------------------------------------------------|
G|-5/7--7-----------------<4>~~-5/7--7-------------5--|
D|-5/7--7-----------------------5/7--7-------------5--|
A|-3/5--5----8~~~-7~~~-3~~------3/5--5-------------3--|
E|----------------------------------------2~~~-1~~~---|

e|----------------------------------------------------|
B|----------------------------------------------------|
G|-5/7--7-----------------------5/7--7----------------|
D|-5/7--7-----------------<4>~~-5/7--7-------------4--|
A|-3/5--5----8~~~-7~~~-3~~------3/5--5----2~~~-1~~~4--|
E|-------------------------------------------------2--|

This was my first online tab. i think it sounds OK. enjoy

            
            
Suggest correction
Creating personal tab
Creating personal tab
You can edit any tab online and save it as your Personal.

You can edit, replace or remove any tab part or add personal notes – all changes will be seen only by you.

Personal tabs can be accessed anytime from any device, even offline.
Learn more »
comments
print report bad tab
3 comments total.
0 reply
BrokenWingman 99 Jun 18, 2007 09:49 AM

Close but not quite here's what I'm hearing:

e|---------------------------------------------------|
B|---------------------------------------------------|
G|-5/7--7-----------------p5~~-5/7--7-------------5--|
D|-5/7--7----------------------5/7--7-------------5--|
A|-3/5--5----p8~~~-p7~~~-p3~~--3/5--5-------------3--|
E|---------------------------------------1~~~-0~~~---|

e|------------------------------------------------------|
B|------------------------------------------------------|
G|-5/7--7------------------p5--5/7--7-------------------|
D|-5/7--7----------------------5/7--7-------------2-3---|
A|-3/5--5----p8~~~-p7~~~-p3~~--3/5--5----1~~~-0~~~2-3---|
E|------------------------------------------------0-1---|

Just a few changes.

0 reply
mongo_man 107 Aug 25, 2007 02:19 PM

WRONG!

0 reply
JIMjamJAYg-REAL 10 Aug 01, 2008 10:40 PM

this tab reaks

guest
Wanna post a correction for this tab? Suggest correction