Oops, an error
Loading. Please wait.

Forsaken Tab

version 1
version 1

Whole song

132,763 views 63 this week
13 commentsread comments
1 2 3 4 5
x 13
add to favorites
launch autoscroll
font size
0
reset
how to read this tab
guitar tuner
Autoscroll
slow
fast
+/-
esc
set tempo
stop
Help us to improve Ultimate-Guitar.com Take our survey!
×
Author
Difficulty
Tuning
advanced
D G C F A D
Dream Theater: Forsaken
Transcribed by: Andrew Zara (disturbedfreak0520@yahoo.com)
Tuning: D Standard (D,G,C,F,A,D)

PLEASE DO NOT COPY THIS TAB TO ANOTHER SITE
WITHOUT AUTHORS' PERMISSION. THANK YOU.

GUITAR 1 - Rythme
                                          PM    PM     PM    PM             
                                     S  S S  E  S   E  S  E  S  E     E     
D|-------|-------|-------|-------|----------------------------------20~---|
A|-------|-------|-------|-------|----------------------------------------|
F|-------|-------|-------|-------|----------------------------------------|
C|-------|-------|-------|-------|--7S-9----9------------------7----------|
G|-------|-------|-------|-------|--5S-7----7-----10-----9-----5--<>(5)~--|
D|-------|-------|-------|-------|-------0-----0------0-----0-------------|

         PM    PM                        PM    PM     PM    PM             
    S  S S  E  S  S S S E.  Q       S  S S  E  S   E  S  E  S  E     E     
D|-------------------------------|----------------------------------20~---|
A|--------------------------3----|----------------------------------------|
F|--------------------------2----|----------------------------------------|
C|--7S-9----9---------0-----0----|--7S-9----9------------------7----------|
G|--5S-7----7-------0-------0----|--5S-7----7-----10-----9-----5--<>(5)~--|
D|-------0-----0--3-----2--------|-------0-----0------0-----0-------------|

         PM    PM                        PM    PM     PM    PM             
    S  S S  E  S  E.   E.   Q       S  S S  E  S   E  S  E  S  E     E     
D|-------------------------------|----------------------------------20~---|
A|-------------------------------|----------------------------------------|
F|-------------------------------|----------------------------------------|
C|--7S-9----9--------------------|--7S-9----9------------------7----------|
G|--5S-7----7---------------4----|--5S-7----7-----10-----9-----5--<>(5)~--|
D|-------0-----0--8~---7~---2----|-------0-----0------0-----0-------------|

         PM    PM                        PM    PM     PM    PM             
    S  S S  E  S  S S S E.  Q       S  S S  E  S   E  S  E  S  E     E     
D|-------------------------------|----------------------------------20~---|
A|--------------------------3----|----------------------------------------|
F|--------------------------2----|----------------------------------------|
C|--7S-9----9---------0-----0----|--7S-9----9------------------7----------|
G|--5S-7----7-------0-------0----|--5S-7----7-----10-----9-----5--<>(5)~--|
D|-------0-----0--3-----2--------|-------0-----0------0-----0-------------|

         PM    PM                                                 
    S  S S  E  S  E.   E.   Q                                     
D|-------------------------------|-------|-------|-------|-------|
A|-------------------------------|-------|-------|-------|-------|
F|-------------------------------|-------|-------|-------|-------|
C|--7S-9----9--------------------|-------|-------|-------|-------|
G|--5S-7----7---------------4----|-------|-------|-------|-------|
D|-------0-----0--8~---7~---2----|-------|-------|-------|-------|

        PM PM  PM PM PM  PMPM  PM PM PM  PM PM  
    E   S  S   S  S  S   S S   S  S  S   S  S   
D|--------(0)-------(0)-------(0)-------(0)----|
A|-----12-----12-10-----10-8------8--7------7--|
F|---------------------------------------------|
C|---------------------------------------------|
G|---------------------------------------------|
D|---------------------------------------------|

    PM      PM     PMPM     PM PM     PM PM     PM  
    S   S   S  S   S S   S  S  S   S  S  S   S  S   
D|-----(0)----(0)-------(0)-------(0)-------(0)----|
A|--5------10-----10-8------8--7------7--5------5--|
F|-------------------------------------------------|
C|-------------------------------------------------|
G|-------------------------------------------------|
D|-------------------------------------------------|

    PM      PM     PM PM     PMPM     PM PM     PM  
    S   S   S  S   S  S  S   S S   S  S  S   S  S   
D|-----(0)----(0)-------(0)-------(0)-------(0)----|
A|--7------12-----12-10-----10-8------8--7------7--|
F|-------------------------------------------------|
C|-------------------------------------------------|
G|-------------------------------------------------|
D|-------------------------------------------------|

    PM      PM     PMPM     PM PM     PM PM     PM  
    S   S   S  S   S S   S  S  S   S  S  S   S  S   
D|-----(0)----(0)-------(0)----8--(0)-8--7--(0)-7--|
A|--5------10-----10-8------8----------------------|
F|-------------------------------------------------|
C|-------------------------------------------------|
G|-------------------------------------------------|
D|-------------------------------------------------|

        PM PM  PM PM PM  PMPM  PM PM PM  PM PM  
    E   S  S   S  S  S   S S   S  S  S   S  S   
D|--------(0)-------(0)-------(0)-------(0)----|
A|-----12-----12-10-----10-8------8--7------7--|
F|---------------------------------------------|
C|---------------------------------------------|
G|---------------------------------------------|
D|---------------------------------------------|

    PM      PM     PMPM     PM PM     PM PM     PM  
    S   S   S  S   S S   S  S  S   S  S  S   S  S   
D|-----(0)----(0)-------(0)-------(0)-------(0)----|
A|--5------10-----10-8------8--7------7--5------5--|
F|-------------------------------------------------|
C|-------------------------------------------------|
G|-------------------------------------------------|
D|-------------------------------------------------|

    PM      PM     PM PM     PMPM     PM PM     PM  
    S   S   S  S   S  S  S   S S   S  S  S   S  S   
D|-----(0)----(0)-------(0)-------(0)-------(0)----|
A|--7------12-----12-10-----10-8------8--7------7--|
F|-------------------------------------------------|
C|-------------------------------------------------|
G|-------------------------------------------------|
D|-------------------------------------------------|

    PM      PM     PMPM     PM PM     PM PM     PM                           
    S   S   S  S   S S   S  S  S   S  S  S   S  S  E     H.           S E.   
D|-----(0)----(0)-------(0)----8--(0)-8--7--(0)-7-----|---------------------|
A|--5------10-----10-8------8-------------------------|---------------------|
F|----------------------------------------------------|---------------------|
C|----------------------------------------------------|--2------------x-5---|
G|----------------------------------------------------|--0------------x-3---|
D|----------------------------------------------------|---------------------|

                   SH             PM     PM     PM          
    H.             Q       E  E   S  E   S  E   S  E.   E   
D|----------------------|----------------------------------|
A|----------------------|----------------------------------|
F|----------------------|----------------------------------|
C|--4-------------------|----------------------------------|
G|--2-------------------|--2--7~-----5~-----9~-----5~---5--|
D|---------------<>3----|--0------0------0------0-------3--|

           PM     PM      PM                                
    E  E   S  E   S   E   S  E.   E     H.           S E.   
D|-----------------------------------|---------------------|
A|-----------------------------------|---------------------|
F|-----------------------------------|---------------------|
C|--------------------------------0--|--5------------x-5---|
G|--2--7~-----5~-----10~-----9~---0--|--3------------x-3---|
D|--0------0------0-------0----------|---------------------|

    H        E  E  S S S S    H        H           W                 
D|-------------------------|--------------------|-------------------|
A|-------------------------|--------------------|-------------------|
F|-------------------------|--------------------|-------------------|
C|--9--------9--9----------|--------------------|--4----------------|
G|--6--------6--6--3-2-----|--2--------2--------|--2----------------|
D|---------------------3-2-|--0--------0--------|-------------------|

    H        H           H.           E  E     H        H         
D|--------------------|---------------------|--------------------|
A|--------------------|---------------------|--------------------|
F|--------------------|---------------------|--------------------|
C|--------------------|--4------------------|--------------------|
G|--2--------2--------|--2------------------|--2--------2--------|
D|--0--------0--------|---------------3--2--|--0--------0--------|

    W                   H.           E  E     W                 
D|-------------------|---------------------|-------------------|
A|-------------------|---------------------|-------------------|
F|-------------------|---------------------|-------------------|
C|-------------------|--7------------L-----|--4----------------|
G|--5----------------|--5------------L--3--|--2----------------|
D|--3----------------|---------------------|-------------------|

            PM PM                                    
    Q    E  S  S  Q    Q       Q.     S S Q    Q     
D|--------------------------|-----------------------|
A|--------------------------|--3------L---3---------|
F|--------------------------|--2------L---2---------|
C|--5----L--------4----5----|--0------L---0----4----|
G|--3----L--3--3--3----3----|-----------0-0----2----|
D|--------------------------|-----------------------|

         PM    PM     PM    PM                    PM    PM                 
    S  S S  E  S   E  S  E  S  E     E       S  S S  E  S  S S S E.  Q     
D|----------------------------------20~---|-------------------------------|
A|----------------------------------------|--------------------------3----|
F|----------------------------------------|--------------------------2----|
C|--7S-9----9------------------7----------|--7S-9----9---------0-----0----|
G|--5S-7----7-----10-----9-----5--<>(5)~--|--5S-7----7-------0-------0----|
D|-------0-----0------0-----0-------------|-------0-----0--3-----2--------|

         PM    PM     PM    PM                    PM    PM                 
    S  S S  E  S   E  S  E  S  E     E       S  S S  E  S  E.   E.   Q     
D|----------------------------------20~---|-------------------------------|
A|----------------------------------------|-------------------------------|
F|----------------------------------------|-------------------------------|
C|--7S-9----9------------------7----------|--7S-9----9--------------------|
G|--5S-7----7-----10-----9-----5--<>(5)~--|--5S-7----7---------------4----|
D|-------0-----0------0-----0-------------|-------0-----0--8~---7~---2----|

                            NH  NH  NH                             
    S S S S S S S S S S S   S   S   S    S S S S S S S S S E.  E   
D|------------------------------------|---------------------------|
A|----------------------------<>7-----|---------------------------|
F|------------------------------------|---------------------------|
C|------------------------<>5-----<>5-|---------------------------|
G|--2---2-----2---2---2---------------|--2---2-----2---2----------|
D|--0---0-----0---0---0---------------|--0---0-----0---0----------|

                            NH  NH  NH                         PM       
    S S S S S S S S S S S   S   S   S    S S S S S S S S S S S S  Q     
D|------------------------------------|--------------------------------|
A|----------------------------<>7-----|---------------------------3----|
F|------------------------------------|---------------------------2----|
C|------------------------<>5-----<>5-|---------------------------0----|
G|--2---2-----2---2---2---------------|--2---2-----2---2---2------0----|
D|--0---0-----0---0---0---------------|--0---0-----0---0---0---0-------|

                            NH  NH  NH                     PM   SH      
    S S S S S S S S S S S   S   S   S    S S S S S S S S S S    Q       
D|------------------------------------|--------------------------------|
A|------------------------<>7-----<>7-|--------------------------------|
F|------------------------------------|--------------------------------|
C|----------------------------<>5-----|--------------------------------|
G|--2---2-----2---2---2---------------|--2---2-----2---2---------------|
D|--0---0-----0---0---0---------------|--0---0-----0---0---0--<>3br----|

                            NH  NH  NH                             
    S S S S S S S S S S S   S   S   S    S S S S S S S S S E.  E   
D|------------------------------------|---------------------------|
A|----------------------------<>7-----|---------------------------|
F|------------------------------------|---------------------------|
C|------------------------<>5-----<>5-|---------------------------|
G|--2---2-----2---2---2---------------|--2---2-----2---2----------|
D|--0---0-----0---0---0---------------|--0---0-----0---0----------|

                                         SH             PM     PM     PM          
    H.           S E.     H.             Q       E  E   S  E   S  E   S  E.   E   
D|---------------------|----------------------|----------------------------------|
A|---------------------|----------------------|----------------------------------|
F|---------------------|----------------------|----------------------------------|
C|--2------------x-5---|--4-------------------|----------------------------------|
G|--0------------x-3---|--2-------------------|--2--7~-----5~-----9~-----5~---5--|
D|---------------------|---------------<>3----|--0------0------0------0-------3--|

           PM     PM    PM                              
    E  E   S  E   S  E  S  E.  E     H.           S E.   
D|--------------------------------|---------------------|
A|--------------------------------|---------------------|
F|--------------------------------|---------------------|
C|-------------------9-----7---0--|--5------------x-5---|
G|--2--7~-----5~---------------0--|--3------------x-3---|
D|--0------0------0-----0---------|---------------------|

    H        E  E  S S S S    H        H           W                 
D|-------------------------|--------------------|-------------------|
A|-------------------------|--------------------|-------------------|
F|-------------------------|--------------------|-------------------|
C|--9--------9--9----------|--------------------|--4----------------|
G|--6--------6--6--3-2-----|--2--------2--------|--2----------------|
D|---------------------3-2-|--0--------0--------|-------------------|

    H        H           H.           E  E     H        H         
D|--------------------|---------------------|--------------------|
A|--------------------|---------------------|--------------------|
F|--------------------|---------------------|--------------------|
C|--------------------|--4------------------|--------------------|
G|--2--------2--------|--2------------------|--2--------2--------|
D|--0--------0--------|---------------3--2--|--0--------0--------|

    W                   H.           E  E     W                 
D|-------------------|---------------------|-------------------|
A|-------------------|---------------------|-------------------|
F|-------------------|---------------------|-------------------|
C|-------------------|--7------------L-----|--4----------------|
G|--5----------------|--5------------L--3--|--2----------------|
D|--3----------------|---------------------|-------------------|

            PM PM                                                       
    Q    E  S  S  Q    Q       Q.     S S Q    Q       H        E  S S  
D|--------------------------|-----------------------|------------------|
A|--------------------------|--3------L---3---------|------------------|
F|--------------------------|--2------L---2---------|------------------|
C|--5----L--------4----5----|--0------L---0----4----|--2--------L------|
G|--3----L--3--3--3----3----|-----------0-0----2----|--0--------L------|
D|--------------------------|-----------------------|--------------5-3-|

    Q.      Q.        Q.     Q.        E.  E.   E.   E.     H        E  S S  
D|-----------------|----------------|--------------------|------------------|
A|----------3------|---------5------|--------------------|------------------|
F|----------2------|---------4------|--------------------|------------------|
C|----------0------|---------2------|--------------------|--2--------L------|
G|-----------------|--2-------------|--------------------|--0--------L------|
D|--2~-------------|--0-------------|--0---2~---3~---0---|--------------5-3-|

    Q.      Q.        E.  E  S Q.        Q.     Q.      
D|-----------------|------------------|----------------|
A|----------3------|------------------|----------------|
F|----------2------|--4---5----5------|----------------|
C|----------0------|--2---2----2------|----------------|
G|-----------------|------------------|--3------3------|
D|--2~-------------|------------------|--1------1------|

       PM PM PM PM PM PM PM    PM PM PM PM                            PM PM       
    E  E  E  E  E  E  E  E     E  E  E  E  E  E  E  E     H        E  S  S  Q     
D|--------------------------|--------------------------|-------------------------|
A|--------------------------|--------------------------|-------------------------|
F|--------------------------|--------------------------|-------------------------|
C|--------------------------|--------------------------|--2--------L--------2----|
G|--5--5--5--5--5--5--5--5--|--5--5--5--5--5--5--5--5--|--0--------L--0--0--0----|
D|--3--3--3--3--3--3--3--3--|--3--3--3--3--3--3--3--3--|-------------------------|

                PM PM                     PM PM    PM PM  
    H        E  S  S  Q       H        E  S  S  E  S  S   
D|-------------------------|-----------------------------|
A|--3--------L--------3----|-----------------------------|
F|--2--------L--------2----|-----------------------------|
C|--0--------L--0--0--0----|--2--------L--------2--------|
G|--0--------L--0--0--0----|--0--------L--0--0--0--0--0--|
D|-------------------------|-----------------------------|

                PM PM                      PM PM                     PM PM       
    H        E  S  S  E  E     H        E  S  S  Q       H        E  S  S  Q     
D|--------------------------|-------------------------|-------------------------|
A|--------------------------|-------------------------|-------------------------|
F|--------------------------|-------------------------|-------------------------|
C|--5--------L--------5-----|--7--------L--------7----|--5--------L--------5----|
G|--2--------L--2--2--2--3--|--5--------L--5--5--5----|--3--------L--3--3--3----|
D|--------------------------|-------------------------|-------------------------|

                PM PM                                                   
    H        E  S  S  E  E     H.           E  E     H        H         
D|--------------------------|---------------------|--------------------|
A|--------------------------|---------------------|--------------------|
F|--4--------L--------4--5--|---------------------|--------------------|
C|--x-----------------------|--4------------4-----|--------------------|
G|--2--------L--2--2--2--3--|--2------------2-----|--2--------2--------|
D|--------------------------|------------------3--|--0--------0--------|

    W                   H        H           H.           E  E   
D|-------------------|--------------------|---------------------|
A|-------------------|--------------------|---------------------|
F|-------------------|--------------------|---------------------|
C|--4----------------|--------------------|--4------------------|
G|--2----------------|--2--------2--------|--2------------------|
D|-------------------|--0--------0--------|---------------3--2--|

    H        H           W                   H.           E  E   
D|--------------------|-------------------|---------------------|
A|--------------------|-------------------|---------------------|
F|--------------------|-------------------|---------------------|
C|--------------------|-------------------|--7------------L-----|
G|--2--------2--------|--5----------------|--5------------L--3--|
D|--0--------0--------|--3----------------|---------------------|

    W                   H        H           W                 
D|-------------------|--------------------|-------------------|
A|-------------------|--------------------|-------------------|
F|-------------------|--------------------|-------------------|
C|--4----------------|--------------------|--4----------------|
G|--2----------------|--2--------2--------|--2----------------|
D|-------------------|--0--------0--------|-------------------|

    H        H           H.           E  E     H        H         
D|--------------------|---------------------|--------------------|
A|--------------------|---------------------|--------------------|
F|--------------------|---------------------|--------------------|
C|--------------------|--4------------------|--------------------|
G|--2--------2--------|--2------------------|--2--------2--------|
D|--0--------0--------|---------------3--2--|--0--------0--------|

    W                   H.           E  E     W                 
D|-------------------|---------------------|-------------------|
A|-------------------|---------------------|-------------------|
F|-------------------|---------------------|-------------------|
C|-------------------|--7------------L-----|--4----------------|
G|--5----------------|--5------------L--3--|--2----------------|
D|--3----------------|---------------------|-------------------|

            PM PM                                    
    Q    E  S  S  Q    Q       Q.     S S Q    Q     
D|--------------------------|-----------------------|
A|--------------------------|--3------L---3---------|
F|--------------------------|--2------L---2---------|
C|--5----L--------4----5----|--0------L---0----4----|
G|--3----L--3--3--3----3----|-----------0-0----2----|
D|--------------------------|-----------------------|

         PM    PM     PM    PM                    PM    PM                 
    S  S S  E  S   E  S  E  S  E     E       S  S S  E  S  S S S E.  Q     
D|----------------------------------20~---|-------------------------------|
A|----------------------------------------|--------------------------3----|
F|----------------------------------------|--------------------------2----|
C|--7S-9----9------------------7----------|--7S-9----9---------0-----0----|
G|--5S-7----7-----10-----9-----5--<>(5)~--|--5S-7----7-------0-------0----|
D|-------0-----0------0-----0-------------|-------0-----0--3-----2--------|

         PM    PM     PM    PM                    PM    PM                 
    S  S S  E  S   E  S  E  S  E     E       S  S S  E  S  E.   E.   Q     
D|----------------------------------20~---|-------------------------------|
A|----------------------------------------|-------------------------------|
F|----------------------------------------|-------------------------------|
C|--7S-9----9------------------7----------|--7S-9----9--------------------|
G|--5S-7----7-----10-----9-----5--<>(5)~--|--5S-7----7---------------4----|
D|-------0-----0------0-----0-------------|-------0-----0--8~---7~---2----|

         PM    PM     PM    PM                    PM    PM                 
    S  S S  E  S   E  S  E  S  E     E       S  S S  E  S  S S S E.  Q     
D|----------------------------------20~---|-------------------------------|
A|----------------------------------------|--------------------------3----|
F|----------------------------------------|--------------------------2----|
C|--7S-9----9------------------7----------|--7S-9----9---------0-----0----|
G|--5S-7----7-----10-----9-----5--<>(5)~--|--5S-7----7-------0-------0----|
D|-------0-----0------0-----0-------------|-------0-----0--3-----2--------|

         PM    PM     PM    PM                    PM    PM                 
    S  S S  E  S   E  S  E  S  E     E       S  S S  E  S  E.   E.   Q     
D|----------------------------------20~---|-------------------------------|
A|----------------------------------------|-------------------------------|
F|----------------------------------------|-------------------------------|
C|--7S-9----9------------------7----------|--7S-9----9--------------------|
G|--5S-7----7-----10-----9-----5--<>(5)~--|--5S-7----7---------------4----|
D|-------0-----0------0-----0-------------|-------0-----0--8~---7~---2----|

    H        Q.        Q.     H           Q.     H           Q.     H         
D|------------------|------------------|------------------|------------------|
A|------------------|------------------|------------------|------------------|
F|------------------|------------------|------------------|------------------|
C|------------------|------------------|------------------|------------------|
G|--2--------L------|--L------L--------|--L------L--------|--L------L--------|
D|--0--------L------|--L------L--------|--L------L--------|--L------L--------|


GUITAR 2 LEADS
D|-------|-------|-------|-------|-------|-------|-------|-------|
A|-------|-------|-------|-------|-------|-------|-------|-------|
F|-------|-------|-------|-------|-------|-------|-------|-------|
C|-------|-------|-------|-------|-------|-------|-------|-------|
G|-------|-------|-------|-------|-------|-------|-------|-------|
D|-------|-------|-------|-------|-------|-------|-------|-------|

    S S S S S S S S S S S S S S S S    S S S S S S S S S S S S S S S S  
D|--0-5-0-5-7-0-5-0-5-7-0-0-5-0-8-7-|--0-5-0-5-7-0-5-0-5-7-0-0-3-0-2-3-|
A|----------------------------------|----------------------------------|
F|----------------------------------|----------------------------------|
C|----------------------------------|----------------------------------|
G|----------------------------------|----------------------------------|
D|----------------------------------|----------------------------------|

    S S S S S S S S S S S S S S S S    S S S S S S S S S S S S S S S S            
D|--0-5-0-5-7-0-5-0-5-7-0-0-5-0-8-7-|--0-5-0-5-7-0-5-0-5-7-0-0-3-0-2-3-|----|----|
A|----------------------------------|----------------------------------|----|----|
F|----------------------------------|----------------------------------|----|----|
C|----------------------------------|----------------------------------|----|----|
G|----------------------------------|----------------------------------|----|----|
D|----------------------------------|----------------------------------|----|----|

D|----|----|----|----|----|----|----|----|----|----|----|----|----|----|
A|----|----|----|----|----|----|----|----|----|----|----|----|----|----|
F|----|----|----|----|----|----|----|----|----|----|----|----|----|----|
C|----|----|----|----|----|----|----|----|----|----|----|----|----|----|
G|----|----|----|----|----|----|----|----|----|----|----|----|----|----|
D|----|----|----|----|----|----|----|----|----|----|----|----|----|----|

    Q      Q      E    S  S  S  S  S  S  
D|-----------------------------12-14-15-|
A|--------------------------12----------|
F|--9~----11~----12~-----12-------------|
C|--------------------10----------------|
G|--------------------------------------|
D|--------------------------------------|

            |--6--|  |--6--|  |--6--|  |--6--|                          
     Q      S  S  S  S  S  S  S  S  S  S  S  S  T  T  T  T  T  T  T  T  
D|--14~-------------------14-17-14----------14-19-17-15----------------|
A|---------------------16----------16----16-------------19-17-15-17-19-|
F|---------------14-16----------------14-------------------------------|
C|---------13-16-------------------------------------------------------|
G|---------------------------------------------------------------------|
D|---------------------------------------------------------------------|

     W                                                          
D|---------------------|-------------------|-------------------|
A|--17~----------------|-------------------|-------------------|
F|---------------------|-------------------|-------------------|
C|---------------------|-------------------|-------------------|
G|---------------------|-------------------|-------------------|
D|---------------------|-------------------|-------------------|

D|-------------------|-------------------|-------------------|-------------------|
A|-------------------|-------------------|-------------------|-------------------|
F|-------------------|-------------------|-------------------|-------------------|
C|-------------------|-------------------|-------------------|-------------------|
G|-------------------|-------------------|-------------------|-------------------|
D|-------------------|-------------------|-------------------|-------------------|

D|-------------------|-------------------|-------------------|
A|-------------------|-------------------|-------------------|
F|-------------------|-------------------|-------------------|
C|-------------------|-------------------|-------------------|
G|-------------------|-------------------|-------------------|
D|-------------------|-------------------|-------------------|

    S S S S S S S S S S S S S S S S    S S S S S S S S S S S S S S S S  
D|--0-5-0-5-7-0-5-0-5-7-0-0-5-0-8-7-|--0-5-0-5-7-0-5-0-5-7-0-0-3-0-2-3-|
A|----------------------------------|----------------------------------|
F|----------------------------------|----------------------------------|
C|----------------------------------|----------------------------------|
G|----------------------------------|----------------------------------|
D|----------------------------------|----------------------------------|

    S S S S S S S S S S S S S S S S    S S S S S S S S S S S S S S S S            
D|--0-5-0-5-7-0-5-0-5-7-0-0-5-0-8-7-|--0-5-0-5-7-0-5-0-5-7-0-0-3-0-2-3-|----|----|
A|----------------------------------|----------------------------------|----|----|
F|----------------------------------|----------------------------------|----|----|
C|----------------------------------|----------------------------------|----|----|
G|----------------------------------|----------------------------------|----|----|
D|----------------------------------|----------------------------------|----|----|

D|----|----|----|----|----|----|----|----|----|----|
A|----|----|----|----|----|----|----|----|----|----|
F|----|----|----|----|----|----|----|----|----|----|
C|----|----|----|----|----|----|----|----|----|----|
G|----|----|----|----|----|----|----|----|----|----|
D|----|----|----|----|----|----|----|----|----|----|

                                              |--6--|   |--6--|  
   S S S  S  S  S  S  S  T  T  T  T  T  T  S  S  S  S   S  S  S  
D-----------------------------------15-12-------12-15S-20-19-17-|
A--------------------15-13-12-------------13-13-----------------|
F--9---9-11-12----12----------14-12-----------------------------|
C----9---------10-----------------------------------------------|
G---------------------------------------------------------------|
D---------------------------------------------------------------|

     E.   S  T  T  T  T  T  T  T  T  T  T  T  T  T  T  T  T  T  T  T  T  T  T  T  
D|-------------------------------------------------------17-19-20-19-17----17-19-2
A|--19~-----------------------------------------17-19-20----------------17--------
F|-------------------------------------14-16-17-----------------------------------
C|----------------------------14-16-17--------------------------------------------
G|-------------------12-14-15-----------------------------------------------------
D|----------12-14-15--------------------------------------------------------------

     W                                                          
D|--24~----------------|-------------------|-------------------|
A|---------------------|-------------------|-------------------|
F|---------------------|-------------------|-------------------|
C|---------------------|-------------------|-------------------|
G|---------------------|-------------------|-------------------|
D|---------------------|-------------------|-------------------|

D|-------------------|-------------------|-------------------|-------------------|
A|-------------------|-------------------|-------------------|-------------------|
F|-------------------|-------------------|-------------------|-------------------|
C|-------------------|-------------------|-------------------|-------------------| x4
G|-------------------|-------------------|-------------------|-------------------|
D|-------------------|-------------------|-------------------|-------------------|

    H        Q    S S S S    E.    E.    E     Q    S  S.   T  S  
D|------------------------|--------------------------------------|
A|------------------------|-------12b---12pb~--L----L-12pbr---10-|
F|----------------------7-|--9~----------------------------------|
C|------------------7-9---|--------------------------------------|
G|------------------------|--------------------------------------|
D|------------------------|--------------------------------------|

     S   S  E   E  Q.      S. S. S  
D|---------------------------------|
A|--10h-12--L--\6--6~---------5--6-|
F|-------------------------7-------|
C|---------------------------------|
G|---------------------------------|
D|---------------------------------|

                            |---6--|  |--6--|                      
    T  T  S S S   E   E.    T   T  T  T  T  T  X   X  T   S. S. S  
D|-----------------------------------------12-17p-12--------------|
A|--5h-6p-5---5S-17--17~----------------13-----------13S-17-15-13-|
F|----------7------------------------14---------------------------|
C|--------------------------------14------------------------------|
G|-------------------------12h-15---------------------------------|
D|----------------------------------------------------------------|

                        |--3--|  |--6--|  |--6--|  
     E.     S  Q.       S  S  S  S  S  S  S  S  S  
D|------------------------------------------------|
A|--12br------------------------------------------|
F|---------12----------------------------12-14-16-|
C|------------12~---------------12-14-15----------|
G|---------------------12-14-15-------------------|
D|------------------------------------------------|

                   SH              T     T         T     T                T       
                                   |------5-----|  |-----5-----|   |------5------|
     E.       S    Q     S  T   T  T  T  T  T   T  T  T  T  T  T   T   T  T  T   T
D|--------17g22-<>22~----L-13h-15-17-15-17-15p-13-15-13-15-13---------------------
A|--15~-------------------------------------------------------10h-11h-13-17-13p-11
F|--------------------------------------------------------------------------------
C|--------------------------------------------------------------------------------
G|--------------------------------------------------------------------------------
D|--------------------------------------------------------------------------------

     |-----5-----|   |---3--|       |---3--|      |---3--|     |-----3----|       
     T   T  T  T T   T   T  T  E    T   T  T  E   T   T  T  E  T   T   X  X  E   S
D|--------------------------------------------------------------------------------
A|--------------------------------------------------------------------------------
F|--12p-10p-9----9h-12p-10p-9S-7~-------------------------------------------------
C|------------12-------------------12p-10p-8S-7-----------------------------------
G|-----------------------------------------------12p-10p-8S-7--8h-10h-12p-8S-7~--L
D|--------------------------------------------------------------------------------

                     |----5----|  |-----5----|  |--6-| |--6--|  |-----5-----|  
    E  E  E.    T T  T  T T  T T  T  T T  T  T  T T  T T  T  T  T  T  T  T  T  
D|----------------------------------------------------------------------------|
A|-------------------------------------------------------------10-12-13-12-10-|
F|-------------------------------------9-10-12-10-9----9-10-12----------------|
C|-----9--9~------9-12-10-9----9-10-12--------------12------------------------|
G|-------------12-----------12------------------------------------------------|
D|--7-------------------------------------------------------------------------|

            |--6--|  |--6--|  |--6--|  |--6--|  |---6--|  |--6--|  
     Q      S  S  S  S  S  S  S  S  S  S  S  S  S   S  S  S  S  S  
D|---------------------------14-15-16-17-18-19-----------------19-|
A|--12~----------12-13-15-17--------------------------------17----|
F|---------12-13-----------------------------------------16-------|
C|----------------------------------------------------17----------|
G|---------------------------------------------14h-19-------------|
D|----------------------------------------------------------------|

     W                                                           
D|--22b~----------------|-------------------|-------------------|
A|----------------------|-------------------|-------------------|
F|----------------------|-------------------|-------------------|
C|----------------------|-------------------|-------------------|
G|----------------------|-------------------|-------------------|
D|----------------------|-------------------|-------------------|

D|-------------------|-------------------|-------------------|-------------------|
A|-------------------|-------------------|-------------------|-------------------|
F|-------------------|-------------------|-------------------|-------------------|
C|-------------------|-------------------|-------------------|-------------------| x4
G|-------------------|-------------------|-------------------|-------------------|
D|-------------------|-------------------|-------------------|-------------------|

                    S S S S S S S S S S S S S S S S  
D|-------|-------|--0-5-0-5-7-0-5-0-5-7-0-0-5-0-8-7-|
A|-------|-------|----------------------------------|
F|-------|-------|----------------------------------|
C|-------|-------|----------------------------------|
G|-------|-------|----------------------------------|
D|-------|-------|----------------------------------|

    S S S S S S S S S S S S S S S S    S S S S S S S S S S S S S S S S  
D|--0-5-0-5-7-0-5-0-5-7-0-0-3-0-2-3-|--0-5-0-5-7-0-5-0-5-7-0-0-5-0-8-7-|
A|----------------------------------|----------------------------------|
F|----------------------------------|----------------------------------|
C|----------------------------------|----------------------------------|
G|----------------------------------|----------------------------------|
D|----------------------------------|----------------------------------|

    S S S S S S S S S S S S S S S S                                      
D|--0-5-0-5-7-0-5-0-5-7-0-0-3-0-2-3-|----|----|----|----|----|----|----||
A|----------------------------------|----|----|----|----|----|----|----||
F|----------------------------------|----|----|----|----|----|----|----||
C|----------------------------------|----|----|----|----|----|----|----||
G|----------------------------------|----|----|----|----|----|----|----||
D|----------------------------------|----|----|----|----|----|----|----||

GUITAR 3 - Rythme
     PM    PM     PM    PM             
                                     S  S S  E  S   E  S  E  S  E     E     
D|-------|-------|-------|-------|----------------------------------17~---|
A|-------|-------|-------|-------|----------------------------------------|
F|-------|-------|-------|-------|----------------------------------------|
C|-------|-------|-------|-------|--7S-9----9------------------7----------|
G|-------|-------|-------|-------|--5S-7----7-----10-----9-----5--<>(5)~--|
D|-------|-------|-------|-------|-------0-----0------0-----0-------------|

         PM    PM                        PM    PM     PM    PM             
    S  S S  E  S  S S S E.  Q       S  S S  E  S   E  S  E  S  E     E     
D|-------------------------------|----------------------------------17~---|
A|--------------------------3----|----------------------------------------|
F|--------------------------2----|----------------------------------------|
C|--7S-9----9---------0-----0----|--7S-9----9------------------7----------|
G|--5S-7----7-------0-------0----|--5S-7----7-----10-----9-----5--<>(5)~--|
D|-------0-----0--3-----2--------|-------0-----0------0-----0-------------|

         PM    PM                        PM    PM     PM    PM             
    S  S S  E  S  E.   E.   Q       S  S S  E  S   E  S  E  S  E     E     
D|-------------------------------|----------------------------------17~---|
A|-------------------------------|----------------------------------------|
F|-------------------------------|----------------------------------------|
C|--7S-9----9--------------------|--7S-9----9------------------7----------|
G|--5S-7----7---------------4----|--5S-7----7-----10-----9-----5--<>(5)~--|
D|-------0-----0--8~---7~---2----|-------0-----0------0-----0-------------|

         PM    PM                        PM    PM     PM    PM             
    S  S S  E  S  S S S E.  Q       S  S S  E  S   E  S  E  S  E     E     
D|-------------------------------|----------------------------------17~---|
A|--------------------------3----|----------------------------------------|
F|--------------------------2----|----------------------------------------|
C|--7S-9----9---------0-----0----|--7S-9----9------------------7----------|
G|--5S-7----7-------0-------0----|--5S-7----7-----10-----9-----5--<>(5)~--|
D|-------0-----0--3-----2--------|-------0-----0------0-----0-------------|

         PM    PM                                                                 
    S  S S  E  S  E.   E.   Q                                                     
D|-------------------------------|-------|-------|-------|-------|-------|-------|
A|-------------------------------|-------|-------|-------|-------|-------|-------|
F|-------------------------------|-------|-------|-------|-------|-------|-------|
C|--7S-9----9--------------------|-------|-------|-------|-------|-------|-------|
G|--5S-7----7---------------4----|-------|-------|-------|-------|-------|-------|
D|-------0-----0--8~---7~---2----|-------|-------|-------|-------|-------|-------|

                                                    H.           S E.   
D|-------|-------|-------|-------|-------|-------|---------------------|
A|-------|-------|-------|-------|-------|-------|---------------------|
F|-------|-------|-------|-------|-------|-------|---------------------|
C|-------|-------|-------|-------|-------|-------|--2------------x-5---|
G|-------|-------|-------|-------|-------|-------|--0------------x-3---|
D|-------|-------|-------|-------|-------|-------|---------------------|

                   SH             PM     PM     PM          
    H.             Q       E  E   S  E   S  E   S  E.   E   
D|----------------------|----------------------------------|
A|----------------------|----------------------------------|
F|----------------------|----------------------------------|
C|--4-------------------|----------------------------------|
G|--2-------------------|--2--7~-----5~-----9~-----5~---5--|
D|---------------<>3----|--0------0------0------0-------3--|

           PM     PM      PM                                
    E  E   S  E   S   E   S  E.   E     H.           S E.   
D|-----------------------------------|---------------------|
A|-----------------------------------|---------------------|
F|-----------------------------------|---------------------|
C|--------------------------------0--|--5------------x-5---|
G|--2--7~-----5~-----10~-----9~---0--|--3------------x-3---|
D|--0------0------0-------0----------|---------------------|

    H        E  E  S S S S    H        H           W                 
D|-------------------------|--------------------|-------------------|
A|-------------------------|--------------------|-------------------|
F|-------------------------|--------------------|-------------------|
C|--9--------9--9----------|--------------------|--4----------------|
G|--6--------6--6--3-2-----|--2--------2--------|--2----------------|
D|---------------------3-2-|--0--------0--------|-------------------|

    H        H           H.           E  E     H        H         
D|--------------------|---------------------|--------------------|
A|--------------------|---------------------|--------------------|
F|--------------------|---------------------|--------------------|
C|--------------------|--4------------------|--------------------|
G|--2--------2--------|--2------------------|--2--------2--------|
D|--0--------0--------|---------------3--2--|--0--------0--------|

    W                   H.           E  E     W                 
D|-------------------|---------------------|-------------------|
A|-------------------|---------------------|-------------------|
F|-------------------|---------------------|-------------------|
C|-------------------|--7------------L-----|--4----------------|
G|--5----------------|--5------------L--3--|--2----------------|
D|--3----------------|---------------------|-------------------|

            PM PM                                    
    Q    E  S  S  Q    Q       Q.     S S Q    Q     
D|--------------------------|-----------------------|
A|--------------------------|--3------L---3---------|
F|--------------------------|--2------L---2---------|
C|--5----L--------4----5----|--0------L---0----4----|
G|--3----L--3--3--3----3----|-----------0-0----2----|
D|--------------------------|-----------------------|

         PM    PM     PM    PM                    PM    PM                 
    S  S S  E  S   E  S  E  S  E     E       S  S S  E  S  S S S E.  Q     
D|----------------------------------17~---|-------------------------------|
A|----------------------------------------|--------------------------3----|
F|----------------------------------------|--------------------------2----|
C|--7S-9----9------------------7----------|--7S-9----9---------0-----0----|
G|--5S-7----7-----10-----9-----5--<>(5)~--|--5S-7----7-------0-------0----|
D|-------0-----0------0-----0-------------|-------0-----0--3-----2--------|

         PM    PM     PM    PM                    PM    PM                 
    S  S S  E  S   E  S  E  S  E     E       S  S S  E  S  E.   E.   Q     
D|----------------------------------17~---|-------------------------------|
A|----------------------------------------|-------------------------------|
F|----------------------------------------|-------------------------------|
C|--7S-9----9------------------7----------|--7S-9----9--------------------|
G|--5S-7----7-----10-----9-----5--<>(5)~--|--5S-7----7---------------4----|
D|-------0-----0------0-----0-------------|-------0-----0--8~---7~---2----|

                            NH  NH  NH                             
    S S S S S S S S S S S   S   S   S    S S S S S S S S S E.  E   
D|------------------------------------|---------------------------|
A|----------------------------<>7-----|---------------------------|
F|------------------------------------|---------------------------|
C|------------------------<>5-----<>5-|---------------------------|
G|--2---2-----2---2---2---------------|--2---2-----2---2----------|
D|--0---0-----0---0---0---------------|--0---0-----0---0----------|

                            NH  NH  NH                         PM       
    S S S S S S S S S S S   S   S   S    S S S S S S S S S S S S  Q     
D|------------------------------------|--------------------------------|
A|----------------------------<>7-----|---------------------------3----|
F|------------------------------------|---------------------------2----|
C|------------------------<>5-----<>5-|---------------------------0----|
G|--2---2-----2---2---2---------------|--2---2-----2---2---2------0----|
D|--0---0-----0---0---0---------------|--0---0-----0---0---0---0-------|

                            NH  NH  NH                     PM   SH      
    S S S S S S S S S S S   S   S   S    S S S S S S S S S S    Q       
D|------------------------------------|--------------------------------|
A|------------------------<>7-----<>7-|--------------------------------|
F|------------------------------------|--------------------------------|
C|----------------------------<>5-----|--------------------------------|
G|--2---2-----2---2---2---------------|--2---2-----2---2---------------|
D|--0---0-----0---0---0---------------|--0---0-----0---0---0--<>3br----|

                            NH  NH  NH                             
    S S S S S S S S S S S   S   S   S    S S S S S S S S S E.  E   
D|------------------------------------|---------------------------|
A|----------------------------<>7-----|---------------------------|
F|------------------------------------|---------------------------|
C|------------------------<>5-----<>5-|---------------------------|
G|--2---2-----2---2---2---------------|--2---2-----2---2----------|
D|--0---0-----0---0---0---------------|--0---0-----0---0----------|

                                         SH             PM     PM     PM          
    H.           S E.     H.             Q       E  E   S  E   S  E   S  E.   E   
D|---------------------|----------------------|----------------------------------|
A|---------------------|----------------------|----------------------------------|
F|---------------------|----------------------|----------------------------------|
C|--2------------x-5---|--4-------------------|----------------------------------|
G|--0------------x-3---|--2-------------------|--2--7~-----5~-----9~-----5~---5--|
D|---------------------|---------------<>3----|--0------0------0------0-------3--|

           PM     PM      PM                                
    E  E   S  E   S   E   S  E.   E     H.           S E.   
D|-----------------------------------|---------------------|
A|-----------------------------------|---------------------|
F|-----------------------------------|---------------------|
C|--------------------------------0--|--5------------x-5---|
G|--2--7~-----5~-----10~-----9~---0--|--3------------x-3---|
D|--0------0------0-------0----------|---------------------|

    H        E  E  S S S S    H        H           W                 
D|-------------------------|--------------------|-------------------|
A|-------------------------|--------------------|-------------------|
F|-------------------------|--------------------|-------------------|
C|--9--------9--9----------|--------------------|--4----------------|
G|--6--------6--6--3-2-----|--2--------2--------|--2----------------|
D|---------------------3-2-|--0--------0--------|-------------------|

    H        H           H.           E  E     H        H         
D|--------------------|---------------------|--------------------|
A|--------------------|---------------------|--------------------|
F|--------------------|---------------------|--------------------|
C|--------------------|--4------------------|--------------------|
G|--2--------2--------|--2------------------|--2--------2--------|
D|--0--------0--------|---------------3--2--|--0--------0--------|

    W                   H.           E  E     W                 
D|-------------------|---------------------|-------------------|
A|-------------------|---------------------|-------------------|
F|-------------------|---------------------|-------------------|
C|-------------------|--7------------L-----|--4----------------|
G|--5----------------|--5------------L--3--|--2----------------|
D|--3----------------|---------------------|-------------------|

            PM PM                                                       
    Q    E  S  S  Q    Q       Q.     S S Q    Q       H        E  S S  
D|--------------------------|-----------------------|------------------|
A|--------------------------|--3------L---3---------|------------------|
F|--------------------------|--2------L---2---------|------------------|
C|--5----L--------4----5----|--0------L---0----4----|--2--------L------|
G|--3----L--3--3--3----3----|-----------0-0----2----|--0--------L------|
D|--------------------------|-----------------------|--------------5-3-|

    Q.      Q.        Q.     Q.        E.  E.   E.   E.     H        E  S S  
D|-----------------|----------------|--------------------|------------------|
A|----------3------|---------5------|--------------------|------------------|
F|----------2------|---------4------|--------------------|------------------|
C|----------0------|---------2------|--------------------|--2--------L------|
G|-----------------|--2-------------|--------------------|--0--------L------|
D|--2~-------------|--0-------------|--0---2~---3~---0---|--------------5-3-|

    Q.      Q.        E.  E  S Q.        Q.     Q.      
D|-----------------|------------------|----------------|
A|----------3------|------------------|----------------|
F|----------2------|--4---5----5------|----------------|
C|----------0------|--2---2----2------|----------------|
G|-----------------|------------------|--3------3------|
D|--2~-------------|------------------|--1------1------|

       PM PM PM PM PM PM PM    PM PM PM PM                            PM PM       
    E  E  E  E  E  E  E  E     E  E  E  E  E  E  E  E     H        E  S  S  Q     
D|--------------------------|--------------------------|-------------------------|
A|--------------------------|--------------------------|-------------------------|
F|--------------------------|--------------------------|-------------------------|
C|--------------------------|--------------------------|--2--------L--------2----|
G|--5--5--5--5--5--5--5--5--|--5--5--5--5--5--5--5--5--|--0--------L--0--0--0----|
D|--3--3--3--3--3--3--3--3--|--3--3--3--3--3--3--3--3--|-------------------------|

                PM PM                     PM PM    PM PM  
    H        E  S  S  Q       H        E  S  S  E  S  S   
D|-------------------------|-----------------------------|
A|--3--------L--------3----|-----------------------------|
F|--2--------L--------2----|-----------------------------|
C|--0--------L--0--0--0----|--2--------L--------2--------|
G|--0--------L--0--0--0----|--0--------L--0--0--0--0--0--|
D|-------------------------|-----------------------------|

                PM PM                      PM PM                     PM PM       
    H        E  S  S  E  E     H        E  S  S  Q       H        E  S  S  Q     
D|--------------------------|-------------------------|-------------------------|
A|--------------------------|-------------------------|-------------------------|
F|--------------------------|-------------------------|-------------------------|
C|--5--------L--------5-----|--7--------L--------7----|--5--------L--------5----|
G|--2--------L--2--2--2--3--|--5--------L--5--5--5----|--3--------L--3--3--3----|
D|--------------------------|-------------------------|-------------------------|

                PM PM                                                   
    H        E  S  S  E  E     H.           E  E     H        H         
D|--------------------------|---------------------|--------------------|
A|--------------------------|---------------------|--------------------|
F|--4--------L--------4--5--|---------------------|--------------------|
C|--x-----------------------|--4------------4-----|--------------------|
G|--2--------L--2--2--2--3--|--2------------2-----|--2--------2--------|
D|--------------------------|------------------3--|--0--------0--------|

    W                   H        H           H.           E  E   
D|-------------------|--------------------|---------------------|
A|-------------------|--------------------|---------------------|
F|-------------------|--------------------|---------------------|
C|--4----------------|--------------------|--4------------------|
G|--2----------------|--2--------2--------|--2------------------|
D|-------------------|--0--------0--------|---------------3--2--|

    H        H           W                   H.           E  E   
D|--------------------|-------------------|---------------------|
A|--------------------|-------------------|---------------------|
F|--------------------|-------------------|---------------------|
C|--------------------|-------------------|--7------------L-----|
G|--2--------2--------|--5----------------|--5------------L--3--|
D|--0--------0--------|--3----------------|---------------------|

    W                   H        H           W                 
D|-------------------|--------------------|-------------------|
A|-------------------|--------------------|-------------------|
F|-------------------|--------------------|-------------------|
C|--4----------------|--------------------|--4----------------|
G|--2----------------|--2--------2--------|--2----------------|
D|-------------------|--0--------0--------|-------------------|

    H        H           H.           E  E     H        H         
D|--------------------|---------------------|--------------------|
A|--------------------|---------------------|--------------------|
F|--------------------|---------------------|--------------------|
C|--------------------|--4------------------|--------------------|
G|--2--------2--------|--2------------------|--2--------2--------|
D|--0--------0--------|---------------3--2--|--0--------0--------|

    W                   H.           E  E     W                 
D|-------------------|---------------------|-------------------|
A|-------------------|---------------------|-------------------|
F|-------------------|---------------------|-------------------|
C|-------------------|--7------------L-----|--4----------------|
G|--5----------------|--5------------L--3--|--2----------------|
D|--3----------------|---------------------|-------------------|

            PM PM                                    
    Q    E  S  S  Q    Q       Q.     S S Q    Q     
D|--------------------------|-----------------------|
A|--------------------------|--3------L---3---------|
F|--------------------------|--2------L---2---------|
C|--5----L--------4----5----|--0------L---0----4----|
G|--3----L--3--3--3----3----|-----------0-0----2----|
D|--------------------------|-----------------------|

         PM    PM     PM    PM                    PM    PM                 
    S  S S  E  S   E  S  E  S  E     E       S  S S  E  S  S S S E.  Q     
D|----------------------------------17~---|-------------------------------|
A|----------------------------------------|--------------------------3----|
F|----------------------------------------|--------------------------2----|
C|--7S-9----9------------------7----------|--7S-9----9---------0-----0----|
G|--5S-7----7-----10-----9-----5--<>(5)~--|--5S-7----7-------0-------0----|
D|-------0-----0------0-----0-------------|-------0-----0--3-----2--------|

         PM    PM     PM    PM                    PM    PM                 
    S  S S  E  S   E  S  E  S  E     E       S  S S  E  S  E.   E.   Q     
D|----------------------------------17~---|-------------------------------|
A|----------------------------------------|-------------------------------|
F|----------------------------------------|-------------------------------|
C|--7S-9----9------------------7----------|--7S-9----9--------------------|
G|--5S-7----7-----10-----9-----5--<>(5)~--|--5S-7----7---------------4----|
D|-------0-----0------0-----0-------------|-------0-----0--8~---7~---2----|

         PM    PM     PM    PM                    PM    PM                 
    S  S S  E  S   E  S  E  S  E     E       S  S S  E  S  S S S E.  Q     
D|----------------------------------17~---|-------------------------------|
A|----------------------------------------|--------------------------3----|
F|----------------------------------------|--------------------------2----|
C|--7S-9----9------------------7----------|--7S-9----9---------0-----0----|
G|--5S-7----7-----10-----9-----5--<>(5)~--|--5S-7----7-------0-------0----|
D|-------0-----0------0-----0-------------|-------0-----0--3-----2--------|

         PM    PM     PM    PM                    PM    PM                 
    S  S S  E  S   E  S  E  S  E     E       S  S S  E  S  E.   E.   Q     
D|----------------------------------17~---|-------------------------------|
A|----------------------------------------|-------------------------------|
F|----------------------------------------|-------------------------------|
C|--7S-9----9------------------7----------|--7S-9----9--------------------|
G|--5S-7----7-----10-----9-----5--<>(5)~--|--5S-7----7---------------4----|
D|-------0-----0------0-----0-------------|-------0-----0--8~---7~---2----|

    H        Q.        Q.     H           Q.     H           Q.     H         
D|------------------|------------------|------------------|------------------|
A|------------------|------------------|------------------|------------------|
F|------------------|------------------|------------------|------------------|
C|------------------|------------------|------------------|------------------|
G|--2--------L------|--L------L--------|--L------L--------|--L------L--------|
D|--0--------L------|--L------L--------|--L------L--------|--L------L--------|

D|---------|-------|-------||
A|---------|-------|-------||
F|---------|-------|-------||
C|---------|-------|-------||
G|---------|-------|-------||
D|---------|-------|-------||

************************************************************
Duration Legend

| W - whole
| H - half
| Q - quarter
| E - 8th
| S - 16th
| T - 32nd
| X - 64th
| . - note dotted
| |-n-|  - n-tuplets

************************************************************
Tablature Legend

| ~    Vibrato
| PM   Palm mute
| (n)  Ghost note
| x    Dead note
| br   Bend release
| b    Bend
| pbr  Pre-bend release
| h    Hammer-on
| \    Slide down
| p    Pull-off
| g    Grace note

************************************************************
Suggest correction
comments
print report bad tab
13 comments total. Showing first comments.
0 reply
SolidxSnake 86 Aug 22, 2008 06:31 PM

Your second fill before the chorus is wrong. This is how it is played, I played along with the track slowed down 35% so I know that every note is 100% correct (possibly played in a different positions but I doubt it):

E E E E E E E E
--------------------------------|
----------------------------15--|
--9------9--11--12------12------|
-----10-------------14----------|
--------------------------------|
--------------------------------|


|---3---| |---3---| |---3---|
S S S S E E E E E E E E E
----------------15------------------15--/20--19--17--|
--13p-12------------13----------13-------------------|
---------14p-12---------12--12-----------------------|
-----------------------------------------------------|
-----------------------------------------------------|
-----------------------------------------------------|


H S S S S S S S S
-------------------------------------|
--19~--------------------------------|
-------------------------------------|
-------------------------------13-14-|
----------------------12-14-15-------|
-------------11-12-14----------------|


|---3---|
S S S S S S S S S S S S S S S S S W
-----------------------17-19h-20p-19p-17----------------|--/24~----------------|
--------------16-17-19-------------------20-19-17-19-20-|----------------------|
-----14-16-17-------------------------------------------|----------------------|
--16----------------------------------------------------|----------------------|
--------------------------------------------------------|----------------------|
--------------------------------------------------------|----------------------|

0 reply
SolidxSnake 86 Aug 22, 2008 06:33 PM

The lead fill before the second chorus is wrong. This is how I tabbed it out, the notes are 100% correct (transcribed the fill note-for-note by slowing it down 35%).

E E E E E E E E
--------------------------------|
----------------------------15--|
--9------9--11--12------12------|
-----10-------------14----------|
--------------------------------|
--------------------------------|


|---3---| |---3---| |---3---|
S S S S E E E E E E E E E
----------------15------------------15--/20--19--17--|
--13p-12------------13----------13-------------------|
---------14p-12---------12--12-----------------------|
-----------------------------------------------------|
-----------------------------------------------------|
-----------------------------------------------------|


H S S S S S S S S
-------------------------------------|
--19~--------------------------------|
-------------------------------------|
-------------------------------13-14-|
----------------------12-14-15-------|
-------------11-12-14----------------|


|---3---|
S S S S S S S S S S S S S S S S S W
-----------------------17-19h-20p-19p-17----------------|--/24~----------------|
--------------16-17-19-------------------20-19-17-19-20-|----------------------|
-----14-16-17-------------------------------------------|----------------------|
--16----------------------------------------------------|----------------------|
--------------------------------------------------------|----------------------|
--------------------------------------------------------|----------------------|

0 reply
SolidxSnake 86 Aug 22, 2008 06:33 PM

Fuck... I didn't think it went through the first time, disregard one of those.

guest
You may want to rate the tab now too:
select rating
Wanna post a correction for this tab? Suggest correction