Oops, an error
Loading. Please wait.
We have an official Forsaken tab made by UG professional guitarists. Check out the tab »
×
3,224 views 6 this week
no commentswrite comment
1 2 3 4 5
x 3
add to favorites
×
Save as Personal and add changes to this tab that will be seen only by you. Learn more ›
×
You can save this tab as Personal to edit and correct it or add notes. All changes will be seen only by you. Learn more »
launch autoscroll
font size
0
reset
guitar tuner
backing track
0:00
0:00
edit
Autoscroll
slow
fast
+/-
esc
set tempo
stop
Author
Difficulty
Forsaken - Dream Theater
Album: Systematic Chaos
5 String Tuning - (B E A D G)
I legitimately just copied the tab that was posted in DGCF tuning and just changed it to 
5 string.Some fingerings may be funky but as far as i can tell, it's the right notes. 
Have fun!


      Intro 2x
|----------------------------------------|
|----------------------------------------|
|--3S-5----5-----8------7-----3----------|
|----------------------------------------| 3x
|----------------------------------------|

|-------------------------------|
|-------------------------------|
|--3S-5----5--------------------|
|-----------------6~----5~------|
|------------------------------5|

 Verse
|--------------|
|--------------|
|--------------| 12x
|--------------|
|3-3-----------|

Pre Chorus
|---------------------|
|---------------------|
|---------------------|
|--3--------------6---|
|---------------------|



|----------------------|----------------------------------|
|----------------------|----------------------------------|
|----------------------|----------------------------------|
|--5--------------1----|-------------------------------1--|
|----------------------|--3--3----------------------------|



|-----------------------------------|---------------------|
|-----------------------------------|---------------------|
|-----------------------------------|---------------------|
|--------------------------------3--|---6-----------x-6---|
|--3--3-----------------------------|---------------------|

                             Chorus
|-------------------------|--------------------|-------------------|
|-------------------------|--------------------|-------------------|
|--3--------3--3--1-0-----|--------------------|-------------------|
|---------------------1-0-|--------------------|--5----------------|
|-------------------------|--3--------3--------|-------------------|



|--------------------|---------------------|--------------------|
|--------------------|---------------------|--------------------|
|--------------------|---------------------|--------------------|
|--------------------|--5------------1--0--|--------------------|
|--3--------3--------|---------------------|--3--------3--------|



|-------------------|---------------------|-------------------|
|-------------------|---------------------|-------------------|
|-------------------|--3------------L--1--|--0----------------|
|--1----------------|---------------------|-------------------|
|-------------------|---------------------|-------------------|


|--------------------------|-----------------------|
|--------------------------|-----------------------|
|--1----L--1--1--1----1----|---3-------------------|
|--------------------------|-----------3-3----5----|
|--------------------------|-----------------------|

After Chorus
|----------------------------------------|
|----------------------------------------|
|--3S-5----5-----8------7-----3----------| 3x
|----------------------------------------|
|----------------------------------------|


|-------------------------------|
|-------------------------------|
|--3S-5----5--------------------|
|----------------6~---5~--------|
|-------3-----3------------5----|


 Verse 2
|------------------------------------|---------------------------|
|------------------------------------|---------------------------|
|------------------------------------|---------------------------|
|------------------------------------|---------------------------|
|---3-3----3---3----3----------------|---3--3----3---3--3--------|


|------------------------------------|--------------------------------|
|------------------------------------|--------------------------------|
|------------------------------------|--------------------------------|
|------------------------------------|--------------------------------|
|--3---3-----3---3---3---------------|--3---3-----3---3---3-----------|


|------------------------------------|--------------------------------|
|------------------------------------|--------------------------------|
|------------------------------------|--------------------------------|
|------------------------------------|--------------------------------|
|--3---3-----3---3---3---------------|--3---3-----3---3---3-----------|

|------------------------------------|----------------------------|
|------------------------------------|----------------------------|
|------------------------------------|----------------------------|
|------------------------------------|----------------------------|
|--3---3-----3---3---3---------------|--3---3-----3---3-----------|


   Pre Chorus
|---------------------|
|---------------------|
|---------------------|
|--3--------------6---|
|---------------------|



|----------------------|----------------------------------|
|----------------------|----------------------------------|
|----------------------|----------------------------------|
|--5--------------1----|-------------------------------1--|
|----------------------|--3--3----------------------------|



|-----------------------------------|---------------------|
|-----------------------------------|---------------------|
|-----------------------------------|--1------------x-1---|
|-------------------------------3---|---------------------|
|--3--3-----------------------------|---------------------|

                             Chorus
|-------------------------|--------------------|-------------------|
|-------------------------|--------------------|-------------------|
|--4--------4--4--1-0-----|--------------------|-------------------|
|---------------------1-0-|--------------------|--5----------------|
|-------------------------|--3--------3--------|-------------------|



|--------------------|---------------------|--------------------|
|--------------------|---------------------|--------------------|
|--------------------|---------------------|--------------------|
|--------------------|---5------------1--0-|--------------------|
|--3--------3--------|---------------------|--3--------3--------|



|-------------------|---------------------|-------------------|
|-------------------|---------------------|-------------------|
|-------------------|--3------------L--1--|--0----------------|
|--1----------------|---------------------|-------------------|
|-------------------|---------------------|-------------------|


|--------------------------|-----------------------|
|--------------------------|-----------------------|
|--1----L--1--1--1----1----|---3-------------------|
|--------------------------|-----------3-3----5----|
|--------------------------|-----------------------|

  Bridge
|------------------|
|------------------|
|------------------|
|--3---------------|
|------------------|


|-----------------|----------------|--------------------|------------------|
|-----------------|----------------|--------------------|------------------|
|-----------------|----------------|--------------------|-----------L------|
|--0~-------------|----------------|-----------1~-------|--3--------L------|
|-----------------|--3-------------|--3---5~--------3---|------------------|


|-----------------|-------------------|----------------|
|-----------------|-------------------|----------------|
|-----------------|-------------------|----------------|
|--0~-------------|-------------------|----------------|
|-----------------|--3----------------|--4------4------|


                                                        Solo
|--------------------------|--------------------------|---------------------|
|--------------------------|--------------------------|---------------------|
|--------------------------|--------------------------|---------------------|
|--1--1--1--1--1--1--1--1--|--1--1--1--1--1--1--1--1--|--3--------L--3--3--3|
|--------------------------|--------------------------|---------------------|


|-------------------------|-----------------------------|
|-------------------------|-----------------------------|
|-------------------------|-----------------------------|
|--3--------L--3--3--3----|--3--------L--3--3--3--3--3--|
|-------------------------|-----------------------------|



|--------------------------|-------------------------|----------------------|
|--------------------------|-------------------------|----------------------|
|--0--------L--0--0--0--1--|--3--------L--3--3--3----|--1--------L--1--1--1-|
|--------------------------|-------------------------|----------------------|
|--------------------------|-------------------------|----------------------|


                                                    Chorus
|--------------------------|---------------------|--------------------|
|--------------------------|---------------------|--------------------|
|--0--------L--0--0--0--1--|--0------------0-----|--------------------|
|--------------------------|------------------1--|--------------------|
|--------------------------|---------------------|--3--------3--------|


|-------------------|--------------------|---------------------|
|-------------------|--------------------|---------------------|
|--0----------------|--------------------|--0------------------|
|-------------------|--------------------|---------------1--0--|
|-------------------|--3--------3--------|---------------------|


|--------------------|-------------------|---------------------|
|--------------------|-------------------|---------------------|
|--------------------|-------------------|--3------------L--1--|
|--------------------|--1----------------|---------------------|
|--3--------3--------|-------------------|---------------------|


|-------------------|--------------------|-------------------|
|-------------------|--------------------|-------------------|
|--0----------------|--------------------|--0----------------|
|-------------------|--------------------|-------------------|
|-------------------|--3--------3--------|-------------------|


|--------------------|---------------------|--------------------|
|--------------------|---------------------|--------------------|
|--------------------|--0------------------|--------------------|
|--------------------|---------------1--0--|--------------------|
|--3--------3--------|---------------------|--3--------3--------|


|-------------------|---------------------|-------------------|
|-------------------|---------------------|-------------------|
|-------------------|--3------------L--1--|--0----------------|
|--1----------------|---------------------|-------------------|
|-------------------|---------------------|-------------------|


|--------------------------|-----------------------|
|--------------------------|-----------------------|
|--1----L--1--1--1----1----|--3---------------0----|
|--------------------------|-----------3-3---------|
|--------------------------|-----------------------|

   Ending 2x
|----------------------------------------|
|----------------------------------------|
|--3S-5----5-----8------7-----3----------| 3x
|----------------------------------------|
|----------------------------------------|


|-------------------------------|
|-------------------------------|
|--3S-5----5--------------------|
|----------------6~---5~---0----|
|-------------------------------|


 End
|------------------|------------------|------------------|------------------|
|------------------|------------------|------------------|------------------|
|------------------|------------------|------------------|------------------|
|-----------L------|--L------L--------|--L------L--------|--L------L--------|
|--3--------L------|--L------L--------|--L------L--------|--L------L--------|


---------|---------|---------||
---------|---------|---------||
---------|---------|---------||
---------|---------|---------||
---------|---------|---------||
Suggest correction
Creating personal tab
Creating personal tab
You can edit any tab online and save it as your Personal.

You can edit, replace or remove any tab part or add personal notes – all changes will be seen only by you.

Personal tabs can be accessed anytime from any device, even offline.
Learn more »
Give kudos to tab author, rate the tab!
1 2 3 4 5
comments
print report bad tab
guest
You may want to rate the tab now too:
select rating
Wanna post a correction for this tab? Suggest correction