Oops, an error
Loading. Please wait.

Home bass

version 2
version 2
2,583 views 6 this week
no commentswrite comment
1 2 3 4 5
3 more votes to show rating
add to favorites
×
Save as Personal and add changes to this tab that will be seen only by you. Learn more ›
×
You can save this tab as Personal to edit and correct it or add notes. All changes will be seen only by you. Learn more »
launch autoscroll
font size
0
reset
guitar tuner
backing track
0:00
0:00
edit
Autoscroll
slow
fast
+/-
esc
set tempo
stop
                                     Home                                       


                                                                   Dream Theater
John Myung - Bass guitar

Dropped D (D, A, D, G)


G||-------|-------|-------|-------|-------|-------|-------|-------|-------|
D||-------|-------|-------|-------|-------|-------|-------|-------|-------|
A||-------|-------|-------|-------|-------|-------|-------|-------|-------|
D||-------|-------|-------|-------|-------|-------|-------|-------|-------|


-------|-------|-------|-------|-------|-------|-------|-------|-------|-------|
-------|-------|-------|-------|-------|-------|-------|-------|-------|-------|
-------|-------|-------|-------|-------|-------|-------|-------|-------|-------|
-------|-------|-------|-------|-------|-------|-------|-------|-------|-------|


                  E  E   S   S S  S   S S  S   S S  S   E    
-------|-------|--------------------------------------------|
-------|-------|--0--0--12h-13-0-10h-12-0-12h-13-0-10h-12~--|
-------|-------|--------------------------------------------|
-------|-------|--------------------------------------------|


  E  E   S   S S  S   S S  S   S S  S   E    
--------------------------------------------|
--0--0--12h-13-0-10h-12-0-12h-13-0-10h-12~--|
--------------------------------------------|
--------------------------------------------|


  E  E   S   S S  S   S S  S   S S  S   E    
--------------------------------------------|
--0--0--12h-13-0-10h-12-0-12h-13-0-10h-12~--|
--------------------------------------------|
--------------------------------------------|


  E  E  S  S S S  S S S  S S S  E    
------------------------------------|
--0--0--7h-8-0-5h-7-0-7h-8-0-5h-7~--|
------------------------------------|
------------------------------------|


  E  E   S   S S  S   S S  S   S S  S   E    
--------------------------------------------|
--0--0--12h-13-0-10h-12-0-12h-13-0-10h-12~--|
--------------------------------------------|
--------------------------------------------|


  E  E   S   S S  S   S S  S   S S  S   E    
--------------------------------------------|
--0--0--12h-13-0-10h-12-0-12h-13-0-10h-12~--|
--------------------------------------------|
--------------------------------------------|


  E  E   S   S S  S   S S  S   S S  S   E    
--------------------------------------------|
--0--0--12h-13-0-10h-12-0-12h-13-0-10h-12~--|
--------------------------------------------|
--------------------------------------------|


  E  E   S   S S  S   S S  S   S S  S   S  S   
----------------------------------------------|
--0--0--12h-13-0-16h-17-0-16h-17-0-17p-16-----|
------------------------------------------17~-|
----------------------------------------------|


  E  E   S   S S  S   S S  S   S S  S   E    
--------------------------------------------|
--0--0--12h-13-0-10h-12-0-12h-13-0-10h-12~--|
--------------------------------------------|
--------------------------------------------|


  E  E   S   S S  S   S S  S   S S  S   E    
--------------------------------------------|
--0--0--12h-13-0-10h-12-0-12h-13-0-10h-12~--|
--------------------------------------------|
--------------------------------------------|


  E  E   S   S S  S   S S  S   S S  S   E    
--------------------------------------------|
--0--0--12h-13-0-10h-12-0-12h-13-0-10h-12~--|
--------------------------------------------|
--------------------------------------------|


  E  E  S  S S S  S S S  S S S  E    
------------------------------------|
--0--0--7h-8-0-5h-7-0-7h-8-0-5h-7~--|
------------------------------------|
------------------------------------|


  E  E   S   S S  S   S S  S   S S  S   E    
--------------------------------------------|
--0--0--12h-13-0-10h-12-0-12h-13-0-10h-12~--|
--------------------------------------------|
--------------------------------------------|


  E  E   S   S S  S   S S  S   S S  S   E    
--------------------------------------------|
--0--0--12h-13-0-10h-12-0-12h-13-0-10h-12~--|
--------------------------------------------|
--------------------------------------------|


  E  E   S   S S  S   S S  S   S S  S   E    
--------------------------------------------|
--0--0--12h-13-0-10h-12-0-12h-13-0-10h-12~--|
--------------------------------------------|
--------------------------------------------|


  E  E   S   S S  S   S S  S   S S  S   S  S   
----------------------------------------------|
--0--0--12h-13-0-16h-17-0-16h-17-0-17p-16-----|
------------------------------------------17~-|
----------------------------------------------|


  E  E   S   S S  S   S S  S   S S  S   E   
-------------------------------------------|
-------------------------------------------|
-------------------------------------------|
--0--0--12h-13-0-10h-12-0-12h-13-0-10h-12--|


  E  E   S   S S  S   S S  S   S S  S   E   
-------------------------------------------|
-------------------------------------------|
-------------------------------------------|
--0--0--12h-13-0-10h-12-0-12h-13-0-10h-12--|


  E  E   S   S S  S   S S  S   S S  S   E     E  E  S  S S S  S S S  S S S  E   
-------------------------------------------|-----------------------------------|
-------------------------------------------|-----------------------------------|
-------------------------------------------|-----------------------------------|
--0--0--12h-13-0-10h-12-0-12h-13-0-10h-12--|--0--0--7h-8-0-5h-7-9-7h-8-9-5p-2--|


  E  E   S   S S  S   S S  S   S S  S   E   
-------------------------------------------|
-------------------------------------------|
-------------------------------------------|
--0--0--12h-13-0-10h-12-0-12h-13-0-10h-12--|


  E  E   S   S S  S   S S  S   S S  S   E   
-------------------------------------------|
-------------------------------------------|
-------------------------------------------|
--0--0--12h-13-0-10h-12-0-12h-13-0-10h-12--|


  E  E   S   S S  S   S S  S   S S  S   E   
-------------------------------------------|
-------------------------------------------|
-------------------------------------------|
--0--0--12h-13-0-10h-12-0-12h-13-0-10h-12--|


  E  E   S   S S S   S S S   S S  S  S  S  
------------------------------------------|
------------------------------------------|
-----------------9h-10---9h-10---10p-9----|
--0--0--12h-13-0-------9-------9-------12-|


  E  E   S   S S  S   S S  S   S S  S   E   
-------------------------------------------|
-------------------------------------------|
-------------------------------------------|
--0--0--12h-13-0-10h-12-0-12h-13-0-10h-12--|


  E  E   S   S S  S   S S  S   S S  S   E   
-------------------------------------------|
-------------------------------------------|
-------------------------------------------|
--0--0--12h-13-0-10h-12-0-12h-13-0-10h-12--|


  E  E   S   S S  S   S S  S   S S  S   E     E  E  S  S S S  S S S  S S S  E   
-------------------------------------------|-----------------------------------|
-------------------------------------------|-----------------------------------|
-------------------------------------------|-----------------------------------|
--0--0--12h-13-0-10h-12-0-12h-13-0-10h-12--|--0--0--7h-8-0-5h-7-9-7h-8-9-5p-2--|


  E  E   S   S S  S   S S  S   S S  S   E   
-------------------------------------------|
-------------------------------------------|
-------------------------------------------|
--0--0--12h-13-0-10h-12-0-12h-13-0-10h-12--|


  E  E   S   S S  S   S S  S   S S  S   E   
-------------------------------------------|
-------------------------------------------|
-------------------------------------------|
--0--0--12h-13-0-10h-12-0-12h-13-0-10h-12--|


  E  E   S   S S  S   S S  S   S S  S   E   
-------------------------------------------|
-------------------------------------------|
-------------------------------------------|
--0--0--12h-13-0-10h-12-0-12h-13-0-10h-12--|


  E  E   S   S S S   S S S   S S  S  S  S    E  E  E  S S S S E  E.  S  
------------------------------------------|----------------------------|
------------------------------------------|----------------------------|
-----------------9h-10---9h-10---10p-9----|----------------------------|
--0--0--12h-13-0-------9-------9-------12-|--0--0-----0-0---0-0------0-|


  E  E  E  S S S S S  S S S  E     E  E  E  S S S S E  E.  S  
--------------------------------|----------------------------|
--------------------------------|----------------------------|
--------------------------------|----------------------------|
--0--0-----0-0---0-5h-6-0-3h-5--|--0--0-----0-0---0-0------0-|


                   |--3--|                                         
  E  E  E  S S S S S  S  S S  S S  S    E  E  E  S S S S E  E.  S  
-------------------------------------|----------------------------|
-------------------------------------|----------------------------|
-------------------------------------|----------------------------|
--0--0-----0-0---0-0h-0h-1-6p-5-1p-0-|--0--0-----0-0---0-0------0-|


  E  E  E  S S S S S  S S S  E     E  E  E  S S S S E  E.  S  
--------------------------------|----------------------------|
--------------------------------|----------------------------|
--------------------------------|----------------------------|
--0--0-----0-0---0-5h-6-0-3h-5--|--0--0-----0-0---0-0------0-|


                   |--3--|                                         
  E  E  E  S S S S S  S  S S  S S  S    E  E  E  S S S S E  E.  S  
-------------------------------------|----------------------------|
-------------------------------------|----------------------------|
-------------------------------------|----------------------------|
--0--0-----0-0---0-0h-0h-1-6p-5-1p-0-|--0--0-----0-0---0-0------0-|


  E  E  E  S S S S S  S S S  E     E  E  E  S S S S E  E.  S  
--------------------------------|----------------------------|
--------------------------------|----------------------------|
--------------------------------|----------------------------|
--0--0-----0-0---0-5h-6-0-3h-5--|--0--0-----0-0---0-0------0-|


                   |--3--|                                         
  E  E  E  S S S S S  S  S S  S S  S    E  E  E  S S S S E  E.  S  
-------------------------------------|----------------------------|
-------------------------------------|----------------------------|
-------------------------------------|----------------------------|
--0--0-----0-0---0-0h-0h-1-6p-5-1p-0-|--0--0-----0-0---0-0------0-|


  E  E  E  S S S S  S S  S S  E     E  E  E  S S S S E  E.  S  
---------------------------------|----------------------------|
----------------------3p-0-------|----------------------------|
---------------------------------|----------------------------|
--0--0-----0-0---0h-3------4p-3--|--0--0-----0-0---0-0------0-|


                   |--3-|                                         
  E  E  E  S S S S S S  S S  S S  S    E  E  E  S S S S E  E.  S  
------------------------------------|----------------------------|
------------------------------------|----------------------------|
--------------------------3p-0------|----------------------------|
--0--0-----0-0---0-0-1h-3------1p-0-|--0--0-----0-0---0-0------0-|


  E  E  E  S S S S  S S  S S  E     E  E  E  S S S S E  E.  S  
---------------------------------|----------------------------|
----------------------3p-0-------|----------------------------|
---------------------------------|----------------------------|
--0--0-----0-0---0h-3------4p-3--|--0--0-----0-0---0-0------0-|


                   |--3-|                                             
  E  E  E  S S S S S S  S S  S S  S    E  E  S  S S  S E  E  E  S  S  
------------------------------------|-------------2h-3-2-------------|
------------------------------------|--------2h-3---------------3p-2-|
--------------------------3p-0------|--0--0---------------0--0-------|
--0--0-----0-0---0-0-1h-3------1p-0-|--------------------------------|


  S  E   S S  S S  S E  S  S S  S E      E  E  S  S S  S E  E  E  S  S  
-----------------------------0h-2-0~--|-------------2h-3-2-------------|
------------------------0h-2----------|--------2h-3---------------3p-2-|
--5p-4~--0-1p-0-4h-5-0----------------|--0--0---------------0--0-------|
--------------------------------------|--------------------------------|


  S  E   S S  S S  S E  S  S S  S E      E  E  S  S S  S E  E  E  S  S  
-----------------------------0h-2-0~--|-------------2h-3-2-------------|
------------------------0h-2----------|--------2h-3---------------3p-2-|
--5p-4~--0-1p-0-4h-5-0----------------|--0--0---------------0--0-------|
--------------------------------------|--------------------------------|


  S  E   S S  S S  S E  S  S S  S E      E  E  S  S S  S E  E  E  S  S  
-----------------------------0h-2-0~--|-------------2h-3-2-------------|
------------------------0h-2----------|--------2h-3---------------3p-2-|
--5p-4~--0-1p-0-4h-5-0----------------|--0--0---------------0--0-------|
--------------------------------------|--------------------------------|


  S  E   S S  S S  S E  S  S S  S E      S S S S S S S S S S S S S S S  S  
-----------------------------0h-2-0~--|-----------------------------------|
------------------------0h-2----------|-----------------------------------|
--5p-4~--0-1p-0-4h-5-0----------------|-----------------------------------|
--------------------------------------|--5-7-8-5-7-5-7-8-7-8-5-7-8-5-3p-0-|


  S S S S S S S S S S S S S S S S    E  E  S  S S  S E  E  E  S  S  
----------------------------------|-------------2h-3-2-------------|
------------------------------7-8-|--------2h-3---------------3p-2-|
------------------------5-7-8-----|--0--0---------------0--0-------|
--5-7-8-5-8-5-7-8-5-7-8-----------|--------------------------------|


  S  E   S S  S S  S E  S  S S  S E      S S S S S S S S S S S S S S S S  
--------------------------------------|----------------------------------|
-----------------------------5h-7-5~--|----------------------------------|
--5p-4~--0-1p-0-4h-5-0--5h-7----------|----------------------------------|
--------------------------------------|--5-7-8-5-7-5-7-8-5-8-5-7-8-5-3-0-|


  S S S S S S S S S S S S S S S S    S S S S S S S S S S S S S S S S  
----------------------------------|----------------------------------|
------------------------------7-8-|----------------------------------|
------------------------5-7-8-----|----------------------------------|
--5-7-8-5-8-5-7-8-5-7-8-----------|--6-6-6-6-6-6-6-6-6-6-6-6-6-6-6-6-|


  S S S S S S S S S S S S S S S S    S S S S S S S S S S S S S S S S  
----------------------------------|----------------------------------|
----------------------------------|----------------------------------|
----------------------------------|--3-3-3-3-3-3-3-3-3-3-3-3-3-3-3-3-|
--3-3-3-3-3-3-3-3-3-3-3-3-3-3-3-3-|----------------------------------|


  S S S S S S S S S S S S S S S S    S S S S S S S S S S S S S S S S  
----------------------------------|----------------------------------|
----------------------------------|----------------------------------|
----------------------------------|----------------------------------|
--6-6-6-6-6-6-6-6-6-6-6-6-6-6-6-6-|--3-3-3-3-3-3-3-3-3-3-3-3-3-3-3-3-|


  S S S S S S S S S S S S S S S S    S S S S S S S S S S S S S S S S  
----------------------------------|----------------------------------|
--1-1-1-1-1-1-1-1-----------------|----------------------------------|
------------------1-1-1-1-1-1-1-1-|--3-3-3-3-3-3-3-3-3-3-3-3-3-3-3-3-|
----------------------------------|----------------------------------|


  S S S S S S S S S S S S S S S S    S S S S S S S S S S S S S S S S  
----------------------------------|----------------------------------|
----------------------------------|----------------------------------|
----------------------------------|----------------------------------|
--6-6-6-6-6-6-6-6-6-6-6-6-6-6-6-6-|--3-3-3-3-3-3-3-3-3-3-3-3-3-3-3-3-|


  S S S S S S S S S S S S S S S S    Q.     S  H         S  
----------------------------------|---------0h-5~--------L-|
--1-1-1-1-1-1-1-1-----------------|------------------------|
------------------1-1-1-1-1-1-1-1-|--3---------------------|
----------------------------------|------------------------|


  Q.     S  H         S    E  E  E  E  E  E  E  E     H         H          
---------0h-5~--------L-|--------------------------|----------------------|
------------------------|--------------------------|----------------------|
--3---------------------|--0--0--0--0--0--0--0--0--|----------------------|
------------------------|--------------------------|--6~--------6~--------|


  E  E  E  E  E  E  E  E     E  E  E  E  E  E  E  E     Q    Q    Q    Q     
--------------------------|--------------------------|----------------------|
--3--3--3--3--3--3--3--3--|--------------------------|----------------------|
--------------------------|--4--4--4--4--4--4--4--4--|--1----1----1----1----|
--------------------------|--------------------------|----------------------|


  H         H            S S S S S  S S S S S Q.      
----------------------|------------------------------|
----------------------|------------------------------|
------------3~--------|--5-5-5-5-5p-0-5-5-5-5-L------|
--5~------------------|------------------------------|


  S S S S S  S S S S S Q.        S S S S S  S S S S S Q.      
------------------------------|------------------------------|
------------------------------|------------------------------|
--5-5-5-5-5p-0-3-3-3-3-L------|--5-5-5-5-5p-0-5-5-5-5-L------|
------------------------------|------------------------------|


  S S S S S  S S S S S Q.        E  E   S   S S  S   S S  S   S S  S   E   
------------------------------|-------------------------------------------|
------------------------------|-------------------------------------------|
--5-5-5-5-5p-0-3-3-3-3-L------|-------------------------------------------|
------------------------------|--0--0--12h-13-0-10h-12-0-12h-13-0-10h-12--|


  E  E   S   S S  S   S S  S   S S  S   E   
-------------------------------------------|
-------------------------------------------|
-------------------------------------------|
--0--0--12h-13-0-10h-12-0-12h-13-0-10h-12--|


  E  E   S   S S  S   S S  S   S S  S   E     E  E  S  S S S  S S S  S S S  E   
-------------------------------------------|-----------------------------------|
-------------------------------------------|-----------------------------------|
-------------------------------------------|-----------------------------------|
--0--0--12h-13-0-10h-12-0-12h-13-0-10h-12--|--0--0--7h-8-0-5h-7-9-7h-8-9-5p-2--|


  E  E   S   S S  S   S S  S   S S  S   E   
-------------------------------------------|
-------------------------------------------|
-------------------------------------------|
--0--0--12h-13-0-10h-12-0-12h-13-0-10h-12--|


  E  E   S   S S  S   S S  S   S S  S   E   
-------------------------------------------|
-------------------------------------------|
-------------------------------------------|
--0--0--12h-13-0-10h-12-0-12h-13-0-10h-12--|


  E  E   S   S S  S   S S  S   S S  S   E   
-------------------------------------------|
-------------------------------------------|
-------------------------------------------|
--0--0--12h-13-0-10h-12-0-12h-13-0-10h-12--|


  E  E   S   S S S   S S S   S S  S  S  S  
------------------------------------------|
------------------------------------------|
-----------------9h-10---9h-10---10p-9----|
--0--0--12h-13-0-------9-------9-------12-|


  E  E   S   S S  S   S S  S   S S  S   E    
--------------------------------------------|
--0--0--12h-13-0-10h-12-0-12h-13-0-10h-12~--|
--------------------------------------------|
--------------------------------------------|


  E  E   S   S S  S   S S  S   S S  S   E    
--------------------------------------------|
--0--0--12h-13-0-10h-12-0-12h-13-0-10h-12~--|
--------------------------------------------|
--------------------------------------------|


  E  E   S   S S  S   S S  S   S S  S   E    
--------------------------------------------|
--0--0--12h-13-0-10h-12-0-12h-13-0-10h-12~--|
--------------------------------------------|
--------------------------------------------|


  E  E   S   S S  S   S S  S   S S  S   E    
--------------------------------------------|
--0--0--12h-13-0-10h-12-0-12h-13-0-10h-12~--|
--------------------------------------------|
--------------------------------------------|


  E  E   S   S S  S   S S  S   S S  S   E    
--------------------------------------------|
--0--0--12h-13-0-10h-12-0-12h-13-0-10h-12~--|
--------------------------------------------|
--------------------------------------------|


  E  E   S   S S  S   S S  S   S S  S   E    
--------------------------------------------|
--0--0--12h-13-0-10h-12-0-12h-13-0-10h-12~--|
--------------------------------------------|
--------------------------------------------|


  E  E   S   S S  S   S S  S   S S  S   E    
--------------------------------------------|
--0--0--12h-13-0-10h-12-0-12h-13-0-10h-12~--|
--------------------------------------------|
--------------------------------------------|


  E  E   S   S S  S   S S  S   S S  S   S  S   
----------------------------------------------|
--0--0--12h-13-0-16h-17-0-16h-17-0-17p-16-----|
------------------------------------------17~-|
----------------------------------------------|


  E  E   S   S S  S   S S  S   S S  S   E    
--------------------------------------------|
--0--0--12h-13-0-10h-12-0-12h-13-0-10h-12~--|
--------------------------------------------|
--------------------------------------------|


  E  E   S   S S  S   S S  S   S S  S   E    
--------------------------------------------|
--0--0--12h-13-0-10h-12-0-12h-13-0-10h-12~--|
--------------------------------------------|
--------------------------------------------|


  E  E   S   S S  S   S S  S   S S  S   E    
--------------------------------------------|
--0--0--12h-13-0-10h-12-0-12h-13-0-10h-12~--|
--------------------------------------------|
--------------------------------------------|


  E  E  S  S S S  S S S  S S S  E    
------------------------------------|
--0--0--7h-8-0-5h-7-0-7h-8-0-5h-7~--|
------------------------------------|
------------------------------------|


  E  E   S   S S  S   S S  S   S S  S   E    
--------------------------------------------|
--0--0--12h-13-0-10h-12-0-12h-13-0-10h-12~--|
--------------------------------------------|
--------------------------------------------|


  E  E   S   S S  S   S S  S   S S  S   E    
--------------------------------------------|
--0--0--12h-13-0-10h-12-0-12h-13-0-10h-12~--|
--------------------------------------------|
--------------------------------------------|


  E  E   S   S S  S   S S  S   S S  S   E    
--------------------------------------------|
--0--0--12h-13-0-10h-12-0-12h-13-0-10h-12~--|
--------------------------------------------|
--------------------------------------------|


  E  E   S   S S  S   S S  S   S S  S   S  S     E  E  S  S S  S E  E  E  S  S  
----------------------------------------------|--------------------------------|
--0--0--12h-13-0-16h-17-0-16h-17-0-17p-16-----|-------------7h-8-7-------------|
------------------------------------------17~-|--0--0--7h-8---------0--0--8p-7-|
----------------------------------------------|--------------------------------|


  S  E   S S  S S  S E  S  S S  S E      E  E  S  S S  S E  E  E  S  S  
-----------------------------0h-2-0~--|-------------2h-3-2-------------|
-------------------0----0h-2----------|--------2h-3---------------3p-2-|
--5p-4~--0-1p-0-4p---0----------------|--0--0---------------0--0-------|
--------------------------------------|--------------------------------|


  S  E   S S  S S  S E  S  S S  S E      E  E  S  S S  S E  E  E  S  S  
-----------------------------0h-2-0~--|-------------2h-3-2-------------|
--0h---------------0----0h-2----------|--------2h-3---------------3p-2-|
-----4~--0-1p-0-4p---0----------------|--0--0---------------0--0-------|
--------------------------------------|--------------------------------|


  S  E   S S  S S  S E  S  S S  S E      E  E  S  S S  S E  E  E  S  S  
-----------------------------0h-2-0~--|-------------2h-3-2-------------|
--0h---------------0----0h-2----------|--------2h-3---------------3p-2-|
-----4~--0-1p-0-4p---0----------------|--0--0---------------0--0-------|
--------------------------------------|--------------------------------|


  S  E   S S  S S  S E  S  S S  S E      S S S S S S S S S S S S S S S  S  
-----------------------------0h-2-0~--|-----------------------------------|
--0h---------------0----0h-2----------|-----------------------------------|
-----4~--0-1p-0-4p---0----------------|----0-1---0---0-1-0-1---0-1--------|
--------------------------------------|--5-----5---5---------5-----5-3p-2-|


  S S S S S S S S S S S S S S S S    E  E  S  S S  S E  E  E  S  S  
------------------------------2-3-|-------------2h-3-2-------------|
------------------------0-2-3-----|--------2h-3---------------3p-2-|
----0-1---1---0-1---0-1-----------|--0--0---------------0--0-------|
--5-----5---5-----5---------------|--------------------------------|


  S  E   S S  S S  S E  S  S S  S E      S S S S S S S S S S S S S S S S  
-----------------------------0h-2-0~--|----------------------------------|
--0h---------------0----0h-2----------|----------------------------------|
-----4~--0-1p-0-4p---0----------------|----0-1---0---0-1---1---0-1-------|
--------------------------------------|--5-----5---5-----5---5-----5-3-0-|


  S S S S S S S S S S S S S S S S    S  S S S S S S S S S S S S S S S  
------------------------------2-3-|-----------------------------------|
------------------------0-2-3-----|-----------------------------------|
----0-1---1---0-1---0-1-----------|-----------------------------------|
--5-----5---5-----5---------------|--6~-6-6-6-6-6-6-6-6-6-6-6-6-6-6-6-|


  S  S S S S S S S S S S S S S S S    S S S S S S S S S S S S S S S S  
-----------------------------------|----------------------------------|
-----------------------------------|----------------------------------|
-----------------------------------|--3-3-3-3-3-3-3-3-3-3-3-3-3-3-3-3-|
--3~-3-3-3-3-3-3-3-3-3-3-3-3-3-3-3-|----------------------------------|


  S S S S S S S S S S S S S S S S    S S S S S S S S S S S S S S S S  
----------------------------------|----------------------------------|
----------------------------------|----------------------------------|
----------------------------------|----------------------------------|
--6-6-6-6-6-6-6-6-6-6-6-6-6-6-6-6-|--3-3-3-3-3-3-3-3-3-3-3-3-3-3-3-3-|


  S S S S S S S S S S S S S S S S    S S S S S S S S S S S S S S S S  
----------------------------------|----------------------------------|
--1-1-1-1-1-1-1-1-----------------|----------------------------------|
------------------1-1-1-1-1-1-1-1-|--3-3-3-3-3-3-3-3-3-3-3-3-3-3-3-3-|
----------------------------------|----------------------------------|


  S S S S S S S S S S S S S S S S    S S S S S S S S S S S S S S S S  
----------------------------------|----------------------------------|
----------------------------------|----------------------------------|
----------------------------------|----------------------------------|
--6-6-6-6-6-6-6-6-6-6-6-6-6-6-6-6-|--3-3-3-3-3-3-3-3-3-3-3-3-3-3-3-3-|


  S S S S S S S S S S S S S S S S    Q.     S  H         S  
----------------------------------|---------0h-5~--------L-|
--1-1-1-1-1-1-1-1-----------------|------------------------|
------------------1-1-1-1-1-1-1-1-|--3---------------------|
----------------------------------|------------------------|


  Q.     S  H         S    E  E  E  E  E  E  E  E     H         H          
---------0h-5~--------L-|--------------------------|----------------------|
------------------------|--------------------------|----------------------|
--3---------------------|--0--0--0--0--0--0--0--0--|----------------------|
------------------------|--------------------------|--6~--------6~--------|


  E  E  E  E  E  E  E  E     E  E  E  E  E  E  E  E     Q    Q    Q    Q     
--------------------------|--------------------------|----------------------|
--3--3--3--3--3--3--3--3--|--------------------------|----------------------|
--------------------------|--4--4--4--4--4--4--4--4--|--1----1----1----1----|
--------------------------|--------------------------|----------------------|


  H         H            E.  E  S  Q    E  S E.      E.  E  S  Q    E  S E.    
----------------------|---------5~-7-------5-7~---|---------5~-7-------5-7~---|
----------------------|--0---0----------0---------|--0---0----------0---------|
------------3~--------|---------------------------|---------------------------|
--5~------------------|---------------------------|---------------------------|


  E.  E  S  Q    E  S E.      E.  E  S  Q    E  S E.    
---------5~-7-------5-7~---|---------5~-7-------5-7~---|
--0---0----------0---------|--0---0----------0---------|
---------------------------|---------------------------|
---------------------------|---------------------------|


  E.  E  S  Q    E  S E.      E.  E  S  Q    E  S E.    
---------5~-7-------5-7~---|---------5~-7-------5-7~---|
--0---0----------0---------|--0---0----------0---------|
---------------------------|---------------------------|
---------------------------|---------------------------|


  E.  E  S  Q    E  S E.      E.  E  S  Q    E  S E.    
---------5~-7-------5-7~---|---------5~-7-------5-7~---|
--0---0----------0---------|--0---0----------0---------|
---------------------------|---------------------------|
---------------------------|---------------------------|


  E.  E  S  Q    E  S E.      E.  E  S  Q    E  S E.    
---------5~-7-------5-7~---|---------5~-7-------5-7~---|
--0---0----------0---------|--0---0----------0---------|
---------------------------|---------------------------|
---------------------------|---------------------------|


  E.  E  S  Q    E  S E.      E.  E  S  Q    E  S E.    
---------5~-7-------5-7~---|---------5~-7-------5-7~---|
--0---0----------0---------|--0---0----------0---------|
---------------------------|---------------------------|
---------------------------|---------------------------|


  E.  E  S  Q    E  S E.      E.  E  S  Q    E  S E.    
---------5~-7-------5-7~---|---------5~-7-------5-7~---|
--0---0----------0---------|--0---0----------0---------|
---------------------------|---------------------------|
---------------------------|---------------------------|


  E.  E  S  Q    E  S E.      E.  E  S  Q    E  S E.    
---------5~-7-------5-7~---|---------5~-7-------5-7~---|
--0---0----------0---------|--0---0----------0---------|
---------------------------|---------------------------|
---------------------------|---------------------------|


  E.  E  S  Q    E  S E.      E.  E  S  Q    E  S E.    
---------5~-7-------5-7~---|---------5~-7-------5-7~---|
--0---0----------0---------|--0---0----------0---------|
---------------------------|---------------------------|
---------------------------|---------------------------|


  E.  E  S  Q    E  S E.      E.  E  S  Q    E  S E.    
---------5~-7-------5-7~---|---------5~-7-------5-7~---|
--0---0----------0---------|--0---0----------0---------|
---------------------------|---------------------------|
---------------------------|---------------------------|


  E.  E  S  Q    E  S E.      E.  E  S  Q    E  S E.    
---------5~-7-------5-7~---|---------5~-7-------5-7~---|
--0---0----------0---------|--0---0----------0---------|
---------------------------|---------------------------|
---------------------------|---------------------------|


  E.  E  S  Q    E  S E.      E.  E  S  Q    E  S E.    
---------5~-7-------5-7~---|---------5~-7-------5-7~---|
--0---0----------0---------|--0---0----------0---------|
---------------------------|---------------------------|
---------------------------|---------------------------|


  E.  E  S  Q    E  S E.      E.  E  S  Q    E  S E.    
---------5~-7-------5-7~---|---------5~-7-------5-7~---|
--0---0----------0---------|--0---0----------0---------|
---------------------------|---------------------------|
---------------------------|---------------------------|


  E.  E  S  Q    E  S E.      E.  E  S  Q    E  S E.    
---------5~-7-------5-7~---|---------5~-7-------5-7~---|
--0---0----------0---------|--0---0----------0---------|
---------------------------|---------------------------|
---------------------------|---------------------------|


  E.  E  S  Q    E  S E.      E.  E  S  Q    E  S E.    
---------5~-7-------5-7~---|---------5~-7-------5-7~---|
--0---0----------0---------|--0---0----------0---------|
---------------------------|---------------------------|
---------------------------|---------------------------|


  E.  E  S  Q    E  S E.      E.  E  S  Q    E  S E.    
---------5~-7-------5-7~---|---------5~-7-------5-7~---|
--0---0----------0---------|--0---0----------0---------|
---------------------------|---------------------------|
---------------------------|---------------------------|


  E  S S S S S S S S S S S S S S    E  S S S S S S S S S S S S S S  
-----------0---------0-----------|-----0-------5-4-----------------|
-----5---3-----6---3-------0-----|---------3---------6-5-----0-----|
-------------------------6---3-2-|-------------------------2---2---|
--5----5-----5---5-----5---------|--5----5---5-----5-----5-------6-|


  E  S S S S S S S S S S S S S S    E  S S S S S S S S S S S S S S  
-----------0---------0-----------|-----0-------5-4-----------------|
-----5---3-----6---3-------0-----|---------3---------6-5-----0-----|
-------------------------6---3-2-|-------------------------2---2---|
--5----5-----5---5-----5---------|--5----5---5-----5-----5-------6-|


  E  S S S S S S S S S S S S S S    E  S S S S S S S S S S S S S S  
-----------0---------0-----------|-----0-------5-4-----------------|
-----5---3-----6---3-------0-----|---------3---------6-5-----0-----|
-------------------------6---3-2-|-------------------------2---2---|
--5----5-----5---5-----5---------|--5----5---5-----5-----5-------6-|


  E  S S S S S S S S S S S S S S    E  S S S S S S S S S S S S S S  
-----------0---------0-----------|-----0-------5-4-----------------|
-----5---3-----6---3-------0-----|---------3---------6-5-----0-----|
-------------------------6---3-2-|-------------------------2---2---|
--5----5-----5---5-----5---------|--5----5---5-----5-----5-------6-|


  E  E  S  S S S  S S S  S S S  E     E  E  S  S S S  S S S  S S S  E   
-----------------------------------|-----------------------------------|
--------0h-1------0---0h-1------0--|--------0h-1------0---0h-1------0--|
---------------3h------------3h----|---------------3h------------3h----|
--0--0-------0------0------0-------|--0--0-------0------0------0-------|


  E  E  S  S S S  S S S  S S S  E     E  E  S  S S S  S S S  S S S  E   
-----------------------------------|-----------------------------------|
--------0h-1------0---0h-1------0--|-----------------------------------|
---------------3h------------3h----|--------------------2------2-------|
--0--0-------0------0------0-------|--0--0--5h-6-0-3h-5---5h-6---3h-5--|


  E  E  S  S S S  S S S  S S S  E     E  E  S  S S S  S S S  S S S  E   
-----------------------------------|-----------------------------------|
--------0h-1------0---0h-1------0--|--------0h-1------0---0h-1------0--|
---------------3h------------3h----|---------------3h------------3h----|
--0--0-------0------0------0-------|--0--0-------0------0------0-------|


  E  E  S  S S S  S S S  S S S  E     E  E  S  S S S  S S S  S S S  S S  
-----------------------------------|------------------0------0---0h-----|
--------0h-1------0---0h-1------0--|--------0h-1---4h-----4h--------4-0-|
---------------3h------------3h----|--------------------2------2--------|
--0--0-------0------0------0-------|--0--0-------0----------------------|


  E  S S S S S S S S S S S S S S    E  S S S S S S S S S S S S S S  
-----0-----0---------0-----------|-----0-------5-4-----------------|
---------3-----6---3-------0-----|---------3---------6-5-----0-----|
-------------------------6---3-2-|-------------------------2---2---|
--5----5-----5---5-----5---------|--5----5---5-----5-----5-------6-|


  E  S S S S S S S S S S S S S S    E  S S S S S S S S S S S S S S  
-----------0---------0-----------|-----0-------5-4-----------------|
-----5---3-----6---3-------0-----|---------3---------6-5-----0-----|
-------------------------6---3-2-|-------------------------2---2---|
--5----5-----5---5-----5---------|--5----5---5-----5-----5-------6-|


  E  S S S S S S S S S S S S S S    E  S S S S S S S S S S S S S S  
-----------0---------0-----------|-----0-------5-4-----------------|
-----5---3-----6---3-------0-----|---------3---------6-5-----0-----|
-------------------------6---3-2-|-------------------------2---2---|
--5----5-----5---5-----5---------|--5----5---5-----5-----5-------6-|


  E  S S S S S S S S S S S S S S    E  S S S S S S S S S S S S S S  
-----------0---------0-----------|-----0-------5-4-----------------|
-----5---3-----6---3-------0-----|---------3---------6-5-----0-----|
-------------------------6---3-2-|-------------------------2---2---|
--5----5-----5---5-----5---------|--5----5---5-----5-----5-------6-|


  E  E  S  S S S  S S S  S S S  E     E  E  S  S S S  S S S  S S S  E   
--------2h-3---0h-2---2h-3---0h-2--|--------2h-3---0h-2---2h-3---0h-2--|
-----------------------------------|-----------------------------------|
-----------------------------------|-----------------------------------|
--0--0-------0------0------0-------|--0--0-------0------0------0-------|


  E  E  S  S S S  S S S  S S S  E     E  E  S  S S S  S S S  S S S  E   
--------2h-3---0h-2---2h-3---0h-2--|--------2h-3---0h-2---2h-3---0h-2--|
-----------------------------------|-----------------------------------|
-----------------------------------|-----------------------------------|
--0--0-------0------0------0-------|--0--0-------0------0------0-------|


  E  E  S  S S S  S S S  S S S  E     E  E  S  S S S  S S S  S S S  E   
--------2h-3---0h-2---2h-3---0h-2--|--------2h-3---0h-2---2h-3---0h-2--|
-----------------------------------|-----------------------------------|
-----------------------------------|-----------------------------------|
--0--0-------0------0------0-------|--0--0-------0------0------0-------|


  E  E  S  S S S  S S S  S S S  E     E  E  S  S S S  S S S  S S S  E   
--------2h-3---0h-2---2h-3---0h-2--|--------2h-3---0h-2---2h-3---0h-2--|
-----------------------------------|-----------------------------------|
-----------------------------------|-----------------------------------|
--0--0-------0------0------0-------|--0--0-------0------0------0-------|


  S S S S S S S S S S S S S S S  S    S S S S S S S S S S S S S S S S  
-----------------------------------|------------------------------2-3-|
-----------------------------------|------------------------0-2-3-----|
----0-1---0---0-1-0-1---0-1--------|----0-1---1---0-1---0-1-----------|
--5-----5---5---------5-----5-3p-2-|--5-----5---5-----5---------------|


  E  E  S  S S  S E  E  E  S  S    S  E   S S  S S  S E  S  S S  S E    
-------------2h-3-2-------------|-----------------------------0h-2-0~--|
--------2h-3---------------3p-2-|--0h---------------0----0h-2----------|
--0--0---------------0--0-------|-----4~--0-1p-0-4p---0----------------|
--------------------------------|--------------------------------------|


  S S S S S S S S S S S S S S S  S    S S S S S S S S S S S S S S S S  
-----------------------------------|------------------------------2-3-|
-----------------------------------|------------------------0-2-3-----|
----0-1---0---0-1-0-1---0-1--------|----0-1---1---0-1---0-1-----------|
--5-----5---5---------5-----5-3p-2-|--5-----5---5-----5---------------|


  Q    Q    Q    Q       Q    Q    Q    Q     
----------------------|----------------------|
----------------------|----------------------|
----------------------|----------------------|
--6----6----6----6----|--3----3----3----3----|


  S S S S S S S S S S S S S S S S    S S S S S S S S S S S S S S S S  
----------------------------------|----------------------------------|
----------------------------------|----------------------------------|
--3-3-3-3-3-3-3-3-3-3-3-3-3-3-3-3-|----------------------------------|
----------------------------------|--6-6-6-6-6-6-6-6-6-6-6-6-6-6-6-6-|


  S S S S S S S S S S S S S S S S    S S S S S S S S S S S S S S S S  
----------------------------------|----------------------------------|
----------------------------------|--1-1-1-1-1-1-1-1-----------------|
----------------------------------|------------------1-1-1-1-1-1-1-1-|
--3-3-3-3-3-3-3-3-3-3-3-3-3-3-3-3-|----------------------------------|


  S S S S S S S S S S S S S S S S    S S S S S S S S S S S S S S S S  
----------------------------------|----------------------------------|
----------------------------------|----------------------------------|
--3-3-3-3-3-3-3-3-3-3-3-3-3-3-3-3-|----------------------------------|
----------------------------------|--6-6-6-6-6-6-6-6-6-6-6-6-6-6-6-6-|


  S S S S S S S S S S S S S S S S    S S S S S S S S S S S S S S S S  
----------------------------------|----------------------------------|
----------------------------------|--1-1-1-1-1-1-1-1-----------------|
----------------------------------|------------------1-1-1-1-1-1-1-1-|
--3-3-3-3-3-3-3-3-3-3-3-3-3-3-3-3-|----------------------------------|


  Q.     S  H         S    Q.     S  H         S    E  E  E  E  E  E  E  E   
---------0h-5~--------L-|---------0h-5~--------L-|--------------------------|
------------------------|------------------------|--------------------------|
--3---------------------|--3---------------------|--0--0--0--0--0--0--0--0--|
------------------------|------------------------|--------------------------|


  H         H            E  E  E  E  E  E  E  E     E  E  E  E  E  E  E  E   
----------------------|--------------------------|--------------------------|
----------------------|--3--3--3--3--3--3--3--3--|--------------------------|
----------------------|--------------------------|--4--4--4--4--4--4--4--4--|
--6~--------6~--------|--------------------------|--------------------------|


  Q    Q    Q    Q       H         H          
----------------------|----------------------|
----------------------|----------------------|
--1----1----1----1----|------------3~--------|
----------------------|--5~------------------|


  E  E  S  S S S  S S S  S S S  E     E  E  S  S S S  S S S  S S S  E   
-----------------------------------|-----------------------------------|
--------0h-1------0---0h-1------0--|--------0h-1------0---0h-1------0--|
---------------3h------------3h----|---------------3h------------3h----|
--0--0-------0------0------0-------|--0--0-------0------0------0-------|


  E  E  S  S S S  S S S  S S S  E     E  E  S  S S S  S S S  S S S  E   
-----------------------------------|-----------------------------------|
--------0h-1------0---0h-1------0--|-----------------------------------|
---------------3h------------3h----|--------------------2------2-------|
--0--0-------0------0------0-------|--0--0--5h-6-0-3h-5---5h-6---3h-5--|


  E  E  S  S S S  S S S  S S S  E     E  E  S  S S S  S S S  S S S  E   
-----------------------------------|-----------------------------------|
--------0h-1------0---0h-1------0--|--------0h-1------0---0h-1------0--|
---------------3h------------3h----|---------------3h------------3h----|
--0--0-------0------0------0-------|--0--0-------0------0------0-------|


  E  E  S  S S S  S S S  S S S  E     E  E  S  S S S  S S S  S S S  S S  
-----------------------------------|------------------0------0---0h-----|
--------0h-1------0---0h-1------0--|--------0h-1---4h-----4h--------4-0-|
---------------3h------------3h----|--------------------2------2--------|
--0--0-------0------0------0-------|--0--0-------0----------------------|


  E  E  S  S S S  S S S  S S S  E     E  E  S  S S S  S S S  S S S  E   
-----------------------------------|-----------------------------------|
--------0h-1------0---0h-1------0--|--------0h-1------0---0h-1------0--|
---------------3h------------3h----|---------------3h------------3h----|
--0--0-------0------0------0-------|--0--0-------0------0------0-------|


  E  E  S  S S S  S S S  S S S  E     E  E  S  S S S  S S S  S S S  E   
-----------------------------------|-----------------------------------|
--------0h-1------0---0h-1------0--|-----------------------------------|
---------------3h------------3h----|--------------------2------2-------|
--0--0-------0------0------0-------|--0--0--5h-6-0-3h-5---5h-6---3h-5--|


  E  E  S  S S S  S S S  S S S  E     E  E  S  S S S  S S S  S S S  E   
-----------------------------------|-----------------------------------|
--------0h-1------0---0h-1------0--|--------0h-1------0---0h-1------0--|
---------------3h------------3h----|---------------3h------------3h----|
--0--0-------0------0------0-------|--0--0-------0------0------0-------|


  E  E  S  S S S  S S S  S S S  E     E  E  S  S S S  S S S  S S S  S S  
-----------------------------------|------------------0------0---0h-----|
--------0h-1------0---0h-1------0--|--------0h-1---4h-----4h--------4-0-|
---------------3h------------3h----|--------------------2------2--------|
--0--0-------0------0------0-------|--0--0-------0----------------------|


  H.           E     H.           E     H.           E     W                 
------------------|------------------|------------------|-------------------|
------------------|------------------|------------------|-------------------|
------------------|------------------|------------------|-------------------|
--0------------0--|--0------------0--|--0------------0--|--0----------------|


  Q    Q    Q    E     Q    Q    Q    E     Q    Q    Q    E   
-------7---------7--|-------7---------7--|-------7---------7--|
--0---------0-------|--0---------0-------|--0---------0-------|
--------------------|--------------------|--------------------|
--------------------|--------------------|--------------------|


  Q    Q    Q    Q       Q    Q    Q    E     Q    Q    Q    E   
-------7---------7----|-------7---------7--|-------7---------7--|
--0---------0---------|--0---------0-------|--0---------0-------|
----------------------|--------------------|--------------------|
----------------------|--------------------|--------------------|


  Q    Q    Q    E     Q    Q    Q    E     E  S S S  S  
-------7---------7--|-------7---------7--|--5--7-8---12-|
--0---------0-------|--0---------0-------|--------------|
--------------------|--------------------|--------------|
--------------------|--------------------|--------------|


   E   S  S S  S  S  S  S  S     E   S  S S  S     E   S  S S  S  S  S  S  S  
--11-------------------------|--------------11-|--14--12-11---12-11----------|
------13-12---13-10-12-13-12-|--10--12-13------|--------------------13-12-10-|
-----------------------------|-----------------|-----------------------------|
-----------------------------|-----------------|-----------------------------|


               |--3--|                           
   S  S  S  S  T  T  T  S  S  S  S  S  E   S  S  
--------11-12-11-12-11----------------11--------|
--12-13----------------13-12-13-12-13-----13-13-|
------------------------------------------------|
------------------------------------------------|


               |--3--|                             
   S  S  S  S  T  T  T  S  S  S  T  T  T  T  Q     
--------11-12-11-12-11----------------------------|
--12-13----------------13-12-13-12-13-12----------|
-----------------------------------------13-12----|
--------------------------------------------------|


               |--3--|                           
   S  S  S  S  T  T  T  S  S  S  S  S  E   S  S  
--------11-12-11-12-11----------------11--------|
--12-13----------------13-12-13-12-13-----13-13-|
------------------------------------------------|
------------------------------------------------|


                |---3---|                                        
   S   S  S  S  T   T   T S S S T  T  T T E  S S    E  S S S  S  
---------10-11-10h-11p-10-8-7-8-7h-8p-7----------|--5--7-8---12-|
--12h-13--------------------------------8-7--8-7-|--------------|
-------------------------------------------------|--------------|
-------------------------------------------------|--------------|


   E   S  S S  S  S  S  S  S     S  S  S  S  S  S  S  S     E   S  S S  S  
--11-------------------------|-----------11-12-11-------|------11-12---14-|
------13-12---13-10-12-13-12-|--10-12-13----------13-12-|--13-------------|
-----------------------------|--------------------13----|-----------------|
-----------------------------|--------------------------|-----------------|


   E   S  S S  S     S  S  S  S S  S  S  S  S  S  E      S  S  S  S  S  S  S  
--15--14-12---11-|--12-14-15-17-L-15-14-12-14-15-17--|--17-20-23-24-23-20-19-|
-----------------|-----------------------------------|-----------------------|
-----------------|-----------------------------------|-----------------------|
-----------------|-----------------------------------|-----------------------|


   S  S  S  E   S  S  S  S  S  S  S  S  S  S  S  S  S S  
--------------------------------------------------------|
------------------------------------------------12-10-8-|
---------------------------------18-17-15-13-12---------|
--19-20-22-24--22-20-19-20-22-24------------------------|


  S S S E  S S S S S S S S S S S S S S    S S S E  S S S S S S S S S S S S S S  
------5-7--5-3-2-3-5-7-8-7-5-3-2-7-5-3-|--2-3-5-7--5-3-2-3-5-7-8-7-5-3-2-7-5-3-|
--7-8----------------------------------|---------------------------------------|
---------------------------------------|---------------------------------------|
---------------------------------------|---------------------------------------|


  S S S E  S S S S S S S S S S S S S S S S S S S  
--2-3-5-7--5-3-2-3-5-7-8-7-5-3-2-7-5-3-2-3-5-7-8-|
-------------------------------------------------|
-------------------------------------------------|
-------------------------------------------------|


  S S  S  E   S  S  S  S  S  S  S  S  S  S  S  S  S  S  
--7-8-11-12--11----------11-12-14-12-11-------12-11----|
----------------13-12-13----------------13-12-------13-|
-------------------------------------------------------|
-------------------------------------------------------|


   S  S  S  E   S  S  S  S  S  S  S  S  S  S  S  S  S  S  
--------11-12--11----------11-12-14-12-11-------12-11----|
--12-13-----------13-12-13----------------13-12-------13-|
---------------------------------------------------------|
---------------------------------------------------------|


   S  S  S  S  S  S  S  S     S  S  S  S  S  S     W                  
--------11-12----11-12-14-|--11-12-14-12-14-15-|--17~----------------|
--12-13-------13----------|--------------------|---------------------|
--------------------------|--------------------|---------------------|
--------------------------|--------------------|---------------------|


  W                    W                    
--L----------------|----------------------||
-------------------|--(0)~----------------||
-------------------|--(0)~----------------||
-------------------|---0~-----------------||




Duration Legend
---------------
W - whole
H - half
Q - quarter
E - 8th
S - 16th
T - 32nd
X - 64th
. - note dotted
|-n-|  - n-tuplets


Tablature Legend
----------------
L - tied note
x - dead note
g - grace note
(n) - ghost note
> - accentuded note
NH - natural harmonic
AH - artificial harmonic
TH - tapped harmonic
SH - semi harmonic
PH - pitch harmonic
h - hammer on
p - pull off
b - bend
br - bendRelease
pb - preBend
pbr - preBendRelease
brb - bendReleaseBend
\n/ - tremolo bar dip
\n - tremolo bar dive
-/n - tremolo bar Release up
/n\ - tremolo bar inverted dip
/n - tremolo bar return
-\n - tremolo bar Release down
S - shift slide
s - legato slide
/ -  slide into from below or out of upwards
\ -  slide into from above or out of downwards
~ - vibrato
W - wide vibrato
tr - trill
TP - tremolo picking
T - tapping
S - slap
P - pop
< - fade in
^ - brush up
v - brush down

            
            
Suggest correction
Creating personal tab
Creating personal tab
You can edit any tab online and save it as your Personal.

You can edit, replace or remove any tab part or add personal notes – all changes will be seen only by you.

Personal tabs can be accessed anytime from any device, even offline.
Learn more »
Give kudos to tab author, rate the tab!
1 2 3 4 5
comments
print report bad tab
guest
You may want to rate the tab now too:
select rating
Wanna post a correction for this tab? Suggest correction