Oops, an error
Loading. Please wait.

Honor Thy Father tab

version 2
version 2

Whole song

Interactive

21,318 views 3 this week
3 commentsread comments
1 2 3 4 5
x 8
add to favorites
×
Save as Personal and add changes to this tab that will be seen only by you. Learn more ›
×
You can save this tab as Personal to edit and correct it or add notes. All changes will be seen only by you. Learn more »
launch autoscroll
font size
0
reset
how to read this tab
guitar tuner
backing track
0:00
0:00
edit
Autoscroll
slow
fast
+/-
esc
set tempo
stop
Author
Difficulty
#----------------------------------PLEASE NOTE---------------------------------#
#This file is the author's own work and represents their interpretation of the #
#song. You may only use this file for private study, scholarship, or research. #
#------------------------------------------------------------------------------#

HONOR THY FATHER
As recorded by Dream Theater
(From the 2003 Album TRAIN OF THOUGHT)
Note: Listen to record for exact rhythm

Transcribed by Jon Symons (with some help from thediceman)
Posted by Iron Pete
 Music by Dream Theater

Gtr I (C F Bb Eb G C) - 'Gtr.1'
Gtr II (C F Bb Eb G C) - 'Gtr.2'
Gtr III (C F Bb Eb G C) - 'Gtr.3'
Gtr IV (C F Bb Eb G C) - 'Keyboard 1'
Gtr V (C F Bb Eb G C) - 'Keyboard 2'


 Intro
  Q=188
  N.C.
 4/4        9/8
  Gtr I
  W          W
|----------|------|
|----------|------|
|----------|------|
|----------|------|
|----------|------|
|----------|------|


  E5                        N.C.
 4/4
  Gtrs I, II
                            PM------------|
  E E E E E E E E   E E E E S S S S S S S S
|-----------------|-------------------------|
|-----------------|-------------------------|
|-----------------|-------------------------|
|-----------------|-------------------------|
|-2---2---2---2---|-2---2-------------------|
|-0---0---0---0---|-0---0---5-6-5-3-5-6-5-3-|


  E5                        N.C.
                            PM------------|
  E E E E E E E E   E E E E S S S S S S S S
|-----------------|---------------------------|
|-----------------|---------------------------|
|-----------------|---------------------------|
|-----------------|---------------------------|
|-2---2---2---2---|-2---2---------------------|
|-0---0---0---0---|-0---0---3-5-3-2-3-5-3-2---|


  E5                        N.C.
                            PM--------------|
  E E E E E E E E   E E E E S  S S S S  S S S
|-----------------|---------------------------|
|-----------------|---------------------------|
|-----------------|---------------------------|
|-----------------|---------------------------|
|-2---2---2---2---|-2---2---------------------|
|-0---0---0---0---|-0---0---8-10-8-7-8-10-8-7-|


  E5                        N.C.
                            PM--------------|
  E E E E E E E E   E E E E S  S S S S  S S S
|-----------------|----------------------------|
|-----------------|----------------------------|
|-----------------|----------------------------|
|-----------------|----------------------------|
|-2---2---2---2---|-2---2---9-10-9-7-9-10-9-7--|
|-0---0---0---0---|-0---0----------------------|


  E5                          Bb5     E5                          G5
 6/8
  PM----------------------------------------------------------------|
  E E E E E E   E E E E E E   E E E E E E   E E E E E E   E E E E E E
|-------------|-------------|-------------|-------------|-------------|
|-------------|-------------|-------------|-------------|-------------|
|-------------|-------------|-------------|-------------|-------------|
|-------------|-------------|-------------|-------------|-------------|
|-2---2---2---|-2---2---2---|-8-8-8-8-2---|-2---2---2---|-2---2---5-5-|
|-0---0---0---|-0---0---0---|-6-6-6-6-0---|-0---0---0---|-0---0---3-3-|


  G5  E5                          Cb5
  PM---------------------------------------
  E E E E E E   E E E E E E   E E E E E E
|-------------|-------------|-------------|
|-------------|-------------|-------------|
|-------------|-------------|-------------|
|-------------|-------------|-----4-4-4-4-|
|-5-5-2---2---|-2---2---2---|-2---3-3-3-3-|
|-3-3-0---0---|-0---0---0---|-0-----------|


  E5                          Dsus2
                             3/8
 -------------------------|
  E E E E E E   E E E E E E   E E E
|-------------|-------------|---------|
|-------------|-------------|---------|
|-------------|-------------|-9-9-9---|
|-------------|-------------|-7-7-7---|
|-2---2---2---|-2---2---2---|-5-5-5---|
|-0---0---0---|-0---0---0---|---------|


    E5                        Bb5       E5                        Gsus2
 4/4
  E E E E E E E E   E E E E E E E E   E E E E E E E E   E E E E E E E E
|-----------------|-----------------|-----------------|-----------------|
|-----------------|-----------------|-----------------|-----------------|
|-9---------------|-----------------|-----------------|-----------------|
|-7---------------|-----------------|-----------------|-----------7-7-7-|
|-5-2---2---2---2-|---2---2---8-8-8-|-8-2---2---2---2-|---2---2---5-5-5-|
|---0---0---0---0-|---0---0---6-6-6-|-6-0---0---0---0-|---0---0---3-3-3-|


    E5                        Cb5       E5                        Dsus2
  E E E E E E E E   E E E E E E E E   E E E E E E E E   E E E E E E E E
|-----------------|-----------------|-----------------|-----------------||
|-----------------|-----------------|-----------------|-----------------||
|-----------------|-----------5-5-5-|-5---------------|-----------9-9-9-||
|-7---------------|-----------4-4-4-|-4---------------|-----------7-7-7-||
|-5-2---2---2---2-|---2---2---3-3-3-|-3-2---2---2---2-|---2---2---5-5-5-||
|-3-0---0---0---0-|---0---0---------|---0---0---0---0-|---0---0---------||


    E5                                F#G5
   4/4
        PM    PM    PM      PM
    E E E  E  E  E  E  E    E  E  E E E E E E
||------------------------|-------------------|
||o--------5-----5-----5--|----5--------------|
||---------4-----4-----4--|----4--------------|
||---------2-----2-----2--|----2--------------|
||o-2-2---(2)-2-(2)-2-(2)-|-2-(2)-2-2-4s5-5-5-|
||--0-0-0-----0-----0-----|-0-----0-0-2s3-3-3-|


  E5                                G5Bb5
      PM    PM    PM      PM
  E E E  E  E  E  E  E    E  E  E E E E E E
|-----------------------|--------------------|
|--------5-----5-----5--|----5---------------|
|--------4-----4-----4--|----4---------------|
|--------2-----2-----2--|----2---------------|
|-2-2---(2)-2-(2)-2-(2)-|-2-(2)-2-2-5s8-8-8--|
|-0-0-0-----0-----0-----|-0-----0-0-3s6-6-6--|


  E5                                F#G5
      PM    PM    PM      PM
  E E E  E  E  E  E  E    E  E  E E E E E E
|-----------------------|-------------------|
|--------5-----5-----5--|----5--------------|
|--------4-----4-----4--|----4--------------|
|--------2-----2-----2--|----2--------------|
|-2-2---(2)-2-(2)-2-(2)-|-2-(2)-2-2-4s5-5-5-|
|-0-0-0-----0-----0-----|-0-----0-0-2s3-3-3-|


  E5                N.C.                F5
      PM    PM    PM       ~
  E E E  E  E  E  E  E   E E +E   E E E E E
|----------------------|-----------------------||
|--------5-----5-------|--------------------o--||
|--------4-----4-------|-----------------------||
|--------2-----2-------|-----------------------||
|-2-2---(2)-2-(2)-2----|-5----------2---3-3-o--||
|-0-0-0-----0-----0-/7-|---7-(7)-3---3-1-1-----||


  N.C.
  PM------------------------------------------------------------------|
  E E E E E E E E   E E E E E E E E   E E E E E E E E   E E E E E E E E
|-----------------|-----------------|-----------------|-----------------|
|-----------------|-----------------|-----------------|-----------------|
|-----------------|-----------------|-----------------|-----------------|
|-----------------|-----------------|-----------------|-----------------|
|-7-5-7-------7-5-|-7-------------5-|-7-5-7-----------|-----------------|
|-------0-3-0-----|---0-7-0-8-7-8---|-------0-3-0-8-7-|-8-0-3-0-7-5-7-8-|


  PM----------------------------------------------------------|
  E E E E E E E E   E E E E E E E E   E E E E E E E E   E E E E E E E E
|-----------------|-----------------|-----------------|-----------------||
|-----------------|-----------------|-----------------|-----------------||
|-----------------|-----------------|-----------------|-----------------||
|-----------------|-----------------|-----------------|-----------------||
|-7-5-7-------7-5-|-7-------------5-|-7-5-7-----------|-----------------||
|-------0-3-0-----|---0-7-0-8-7-8---|-------0-3-0-8-7-|-8-0-3-0-7-5-7-8-||


  E5                                F#G5
      PM    PM    PM      PM
  E E E  E  E  E  E  E    E  E  E E E E E E
|-----------------------|-------------------|
|--------5-----5-----5--|----5--------------|
|--------4-----4-----4--|----4--------------|
|--------2-----2-----2--|----2--------------|
|-2-2---(2)-2-(2)-2-(2)-|-2-(2)-2-2-4s5-5-5-|
|-0-0-0-----0-----0-----|-0-----0-0-2s3-3-3-|


  E5                                G5Bb5
      PM    PM    PM      PM
  E E E  E  E  E  E  E    E  E  E E E E E E
|-----------------------|-------------------|
|--------5-----5-----5--|----5--------------|
|--------4-----4-----4--|----4--------------|
|--------2-----2-----2--|----2--------------|
|-2-2---(2)-2-(2)-2-(2)-|-2-(2)-2-2-5s8-8-8-|
|-0-0-0-----0-----0-----|-0-----0-0-3s6-6-6-|


  E5                                F#G5
      PM    PM    PM      PM
  E E E  E  E  E  E  E    E  E  E E E E E E
|-----------------------|-------------------|
|--------5-----5-----5--|----5--------------|
|--------4-----4-----4--|----4--------------|
|--------2-----2-----2--|----2--------------|
|-2-2---(2)-2-(2)-2-(2)-|-2-(2)-2-2-4s5-5-5-|
|-0-0-0-----0-----0-----|-0-----0-0-2s3-3-3-|


  E5                N.C.
      PM    PM    PM       ~
  E E E  E  E  E  E  E   E E +E   E E E E E
|----------------------|----------------------||
|--------5-----5-------|----------------------||
|--------4-----4-------|----------------------||
|--------2-----2-------|----------------------||
|-2-2---(2)-2-(2)-2----|-5----------2---3-3---||
|-0-0-0-----0-----0-/7-|---7-(7)-3---3-1-1----||


  PM------------------------------------------------------------------|
  E E E E E E E E   E E E E E E E E   E E E E E E E E   E E E E E E E E
|-----------------|-----------------|-----------------|-----------------|
|-----------------|-----------------|-----------------|-----------------|
|-----------------|-----------------|-----------------|-----------------|
|-----------------|-----------------|-----------------|-----------------|
|-7-5-7-------7-5-|-7-------------5-|-7-5-7-----------|-----------------|
|-------0-3-0-----|---0-7-0-8-7-8---|-------0-3-0-8-7-|-8-0-3-0-7-5-7-8-|


  PM------------------------------|
  E E E E E E E E   E E E E E E E E   E E E E E E E E   E E E E E E E E
|-----------------|-----------------|-----------------|-----------------|
|-----------------|-----------------|-----------------|-----------------|
|-----------------|-----------------|-----------------|-----------------|
|-----------------|-----------------|-----------------|-----------------|
|-7-5-7-------7-5-|-7-------------5-|-7-5-7-----------|-----------------|
|-------0-3-0-----|---0-7-0-8-7-8---|-------0-3-0-8-7-|-8-0-3-0-7-5-7-8-|


                    Verse 1
  N.C.               N.C.(E5)
 7/4
                     Gtr III
  W                  Q  E E E E E  E E E E E Q
|----------------||-----------------------------|
|----------------||o----------------------------|
|----------------||-----------------------------|
|----------------||-----9---7h9---10---9---7h9--|
|----------------||o-7----7-----7----7---7------|
|----------------||-----------------------------|


 8/4
  Q  E E E E E  E E E E E E E E E
|----------------------------------|
|----------------------------------|
|----------------------------------|
|----9---7h9---10---9---7h9---7h9--|
|-7----7-----7----7---7-----7------|
|----------------------------------|


 7/4                          8/4
  Q  E E E E E  E E E E E Q    Q  E E E E E  E E  E E E E E E E
|----------------------------|-----------------------------------||
|----------------------------|----------------------------------o||
|----------------------------|-----------------------------------||
|----9---7h9---10---9---7h9--|----9---7h9---12---10---7h9---7h9--||
|-7----7-----7----7---7------|-7----7-----7----7----7-----7-----o||
|----------------------------|-----------------------------------||


    N.C.(E5)
    Gtrs I, II
    Q  E E E E E E E E E E E E E E   Q  E E  E E E E E E  E E +E  E E E
||---------------------------------|--------------------------------------||
||o--------------------------------|-------------------------------------o||
||---------------------------------|--------------------------------------||
||---------------------------------|--------------------------------------||
||o--------------------------------|-------------------------------------o||
||--0--7p0-8-7-0-5p0-7p0-2p0-3p0-5-|-0--7p0-10-8-0-5p0-7h12-0-(0)-2p0-3---||


   Verse 2
    E5
   7/4                       8/4
    PM--|        PM--|        PM--|        PM--|    PM|
    E E E E Q.   E E E H      E E E E Q.   E E E Q  E E Q    4x
||--------------------------|--------------------------------||
||o-------------------------|-------------------------------o||
||--------------------------|--------------------------------||
||--------------------------|--------------------------------||
||o-2-2-2--------2-2-2------|-2-2-2--------2-2-2----2-2-----o||
||--0-0-0--------0-0-0------|-0-0-0--------0-0-0----0-0------||


 Chorus
  Csus2
 7/4                   8/4
  Gtr I
  H    Q.   Q.   H      H    Q.   Q.   Q   H
|-----------3---------|-----------3-------------------------------|
|------3---------3----|------3---------3--------------------------|
|-5-------------------|-5------------------5----------------------|
|-5-------------------|-5-----------------------------------------|
|-3-------------------|-3-----------------------------------------|
|---------------------|-------------------------------------------|
|
| Gtr II
| H    Q.   Q.   H      H    Q.   Q.   Q   S  S  S  S  S  S  S  S
|-----------3---------|-----------3-------------------------------|
|------3---------3----|------3---------3--13-15-13-12-------------|
|-5-------------------|-5-----------------------------12-14-12-11-|
|-5-------------------|-5-----------------------------------------|
|-3-------------------|-3-----------------------------------------|
|---------------------|-------------------------------------------|


  N.C.(E5)
 7/4
  Gtrs I, II
  Q  Q  Q  E E +E  E +E   E  +E   E
|--------------------------------------|
|--------------------------------------|
|-------9--9-------------11-(11)-11----|
|-------x--x--------------x-------x----|
|-------7--7--------------9--(9)--9----|
|-0--0-------0-(0)-0-(0)---------------|
|
| W
|--------------------------------------|
|--------------------------------------|
|--------------------------------------|
|--------------------------------------|
|--------------------------------------|
|--------------------------------------|


                                          Csus2
 8/4                                     7/4
  Q  Q   Q   E E +E  E +E   Q   +E   Q    H    Q.   Q.   H
|---------------------------------------|-----------3---------|
|---------------------------------------|------3---------3----|
|-------12--12-------------14--(14)s16--|-5-------------------|
|--------x---x--------------x-----------|-5-------------------|
|-------10--10-------------12--(12)s14--|-3-------------------|
|-0--0---------0-(0)-0-(0)--------------|---------------------|


                    D5/A   G5   A5   F#5  C5       F5
 8/4
  H    Q.   Q.   Q  H      Q.   Q.   Q  E E +Q   E Q.
|-----------3------------|-------------------------------||
|------3---------3-------|-------------------------------||
|-5----------------------|-------------------------------||
|-5-----------------7----|----------------5-(5)----------||
|-3-----------------5----|-5----7----4--x-3-(3)--x-3-----||
|-------------------5----|-3----5----2--x--------x-1-----||


   Bridge
    N.C.        G5F#5 A5   F#5   G5  N.C.        G5F#5 C5 F#G5F#G5
    PM~  PM~  PM    PM   PM          PM~  PM~  PM    PM
    E Q  E Q  E E E E Q  E E +E  E   E Q  E Q  E E E E Q  E E E E
||---------------------------------|-------------------------------|
||o--------------------------------|-------------------------------|
||---------------------------------|-------------------------------|
||---------------------------------|-------------------5-----------|
||o-------------5s4---7----4-(4)s5-|-------------5s4---3--4-5-4-5--|
||--0-7--0-6--0-3s2-0-5--0-2-(2)s3-|-0-7--0-6--0-3s2-0----2-3-2-3--|


  N.C.        G5F#5 A5   F#5   G5  N.C.        G5F#5 C5 F#G5F#G5
  PM~  PM~  PM    PM   PM          PM~  PM~  PM    PM
  E Q  E Q  E E E E Q  E E +E  E   E Q  E Q  E E E E Q  E E E E
|--------------------------------|-------------------------------||
|--------------------------------|------------------------------o||
|--------------------------------|-------------------------------||
|--------------------------------|-------------------5-----------||
|-------------5s4---7----4-(4)s5-|-------------5s4---3--4-5-4-5-o||
|-0-7--0-6--0-3s2-0-5--0-2-(2)s3-|-0-7--0-6--0-3s2-0----2-3-2-3--||


   Interlude
    E5                                F#G5
   4/4
        PM    PM    PM      PM
    E E E  E  E  E  E  E    E  E  E E E E E E
||------------------------|-------------------|
||o--------5-----5-----5--|----5--------------|
||---------4-----4-----4--|----4--------------|
||---------2-----2-----2--|----2--------------|
||o-2-2---(2)-2-(2)-2-(2)-|-2-(2)-2-2-4s5-5-5-|
||--0-0-0-----0-----0-----|-0-----0-0-2s3-3-3-|


  E5                                G5Bb5
      PM    PM    PM      PM
  E E E  E  E  E  E  E    E  E  E E E E E E
|-----------------------|--------------------|
|--------5-----5-----5--|----5---------------|
|--------4-----4-----4--|----4---------------|
|--------2-----2-----2--|----2---------------|
|-2-2---(2)-2-(2)-2-(2)-|-2-(2)-2-2-5s8-8-8--|
|-0-0-0-----0-----0-----|-0-----0-0-3s6-6-6--|


  E5                                F#G5
      PM    PM    PM      PM
  E E E  E  E  E  E  E    E  E  E E E E E E
|-----------------------|-------------------|
|--------5-----5-----5--|----5--------------|
|--------4-----4-----4--|----4--------------|
|--------2-----2-----2--|----2--------------|
|-2-2---(2)-2-(2)-2-(2)-|-2-(2)-2-2-4s5-5-5-|
|-0-0-0-----0-----0-----|-0-----0-0-2s3-3-3-|


  E5                N.C.                F5
      PM    PM    PM       ~
  E E E  E  E  E  E  E   E E +E   E E E E E
|----------------------|-----------------------||
|--------5-----5-------|--------------------o--||
|--------4-----4-------|-----------------------||
|--------2-----2-------|-----------------------||
|-2-2---(2)-2-(2)-2----|-5----------2---3-3-o--||
|-0-0-0-----0-----0-/7-|---7-(7)-3---3-1-1-----||


                                Verse 3
  N.C.(E5)
 7/4
  Gtr I                          Gtrs I, II
       PM    PM   PM  PM              PM    PM   PM  PM
  Q  E E E E E  E E E E E Q      Q  E E E E E  E E E E E Q
|----------------------------||-----------------------------|
|----------------------------||o----------------------------|
|----------------------------||-----------------------------|
|----9---7h9---10---9---7h9--||-----9---7h9---10---9---7h9--|
|-7--7-7-7---7--7-7-7-7-7----||o-7--7-7-7---7--7-7-7-7-7----|
|----------------------------||-----------------------------|


 8/4
       PM    PM   PM  PM    PM
  Q  E E E E E  E E E E E E E E E
|----------------------------------|
|----------------------------------|
|----------------------------------|
|----9---7h9---10---9---7h9---7h9--|
|-7--7-7-7---7--7-7-7-7-7---7-7----|
|----------------------------------|


 7/4                          8/4
       PM    PM   PM  PM            PM    PM   PM   PM    PM
  Q  E E E E E  E E E E E Q    Q  E E E E E  E E  E E E E E E E
|----------------------------|-----------------------------------||
|----------------------------|----------------------------------o||
|----------------------------|-----------------------------------||
|----9---7h9---10---9---7h9--|----9---7h9---12---10---7h9---7h9--||
|-7--7-7-7---7--7-7-7-7-7----|-7--7-7-7---7--7-7--7-7-7---7-7---o||
|----------------------------|-----------------------------------||


    N.C.(E5)
    Q  E E E E E E E E E E E E E E   Q  E E  E E E E E E  E E +E  E E E
||---------------------------------|--------------------------------------||
||o--------------------------------|-------------------------------------o||
||---------------------------------|--------------------------------------||
||---------------------------------|--------------------------------------||
||o--------------------------------|-------------------------------------o||
||--0--7p0-8-7-0-5p0-7p0-2p0-3p0-5-|-0--7p0-10-8-0-5p0-7h12-0-(0)-2p0-3---||


   Verse 4
    E5                           Cmaj7
   7/4                          8/4
         PM    PM   PM  PM            PM    PM   PM  PM    PM
    Q  E E E E E  E E E E E Q    Q  E E E E E  E E E E E E E E E
||-----------------------------|----------------------------------|
||o----------------------------|----------------------------------|
||-----------------------------|----------------------------------|
||-----9---7h9---10---9---7h9--|----9---7h9---10---9---7h9---7h9--|
||o-7--7-7-7---7--7-7-7-7-7----|----------------------------------|
||-----------------------------|-8----8-----8----8---8-----8------|


  D6                           B5
 7/4                          8/4
       PM    PM   PM  PM            PM    PM  PM  PM    PM
  Q  E E E E E  E E E E E Q    Q  E E E E E E E E E E E E E E
|----------------------------|---------------------------------||
|----------------------------|--------------------------------o||
|----------------------------|---------------------------------||
|----9---7h9---10---9---7h9--|----4---2h4---5---4---2h4---2h4--||
|-5--5-5-5---5--5-5-5-5-5----|-2--2-2-2---2-2-2-2-2-2---2-2---o||
|----------------------------|---------------------------------||


 Chorus
  N.C.(C)
 7/4
  E  E E  E E E  E E +E   E E  E E  E
|-------------------------------------|
|-------------------------------------|
|-------------------------------------|
|-----------7--------------------7----|
|---10-9-10---9-10-------10-9-10---10-|
|-8----------------8-(8)--------------|


 8/4
                                   PM-----------------|
  E  E E  E  E E  E E +E   E  E E  S  S  S S  S  S  S S
|--------------------------------------------------------|
|--------------------------------------------------------|
|--------------------------------------------------------|
|-----------12------------------9-10-12-10-9-------------|
|---10-9-10----9-10-------10-12--------------10-12-10-9--|
|-8-----------------8-(8)--------------------------------|


  N.C.(E5)
 7/4
  E E E E  E E E E +E  E E E  E a E
|-----------------------------------|
|-----------------------------------|
|-----------------------------------|
|---9-7-9-10-7-9-------9-7-9-10-7h9-|
|-7--------------7-(7)--------------|
|-----------------------------------|


 8/4
                             PM------------|
  E E E E  E E E E E  E  E E S S S S S S S S
|--------------------------------------------|
|--------------------------------------------|
|---------11---------------------------------|
|---9-7-9----7-9-----12-10-9-7-9-7-5---------|
|-7--------------7-------------------7-9-7-5-|
|--------------------------------------------|


  N.C.(C)
 7/4
  E  E E  E E E  E E +E   E E  E E  E
|-------------------------------------|
|-------------------------------------|
|-------------------------------------|
|-----------7--------------------7----|
|---10-9-10---9-10-------10-9-10---10-|
|-8----------------8-(8)--------------|


 8/4
                                PM------------|
  E  E E  E  E E  E E +E  E E E S S S S S S S S
|------------------------------------------------|
|------------------------------------------------|
|------------------------------------------------|
|-----------12------------5-4--------------------|
|---10-9-10----9-10-----------5-3-5-3-2----------|
|-8-----------------8-(8)---------------3-5-3-2--|


  G5   A5   F#5  C5       F5
  Gtr II                        G
                           ~~~
  Q.   Q.   Q  E E +Q   E  Q.
|-------------------------------|
|-------------------------------|
|-------------------------------|
|----------------5-(5)----------|
|-5----7----4--x-3-(3)--x-[8]---|
|-3----5----2--x--------x-------|
|
| Gtr I
| Q.   Q.   Q  E E +Q   E  Q.
|-------------------------------|
|-------------------------------|
|-------------------------------|
|----------------5-(5)----------|
|-5----7----4--x-3-(3)--x--3----|
|-3----5----2--x--------x--1----|


   Bridge
    N.C.        G5F#5 A5   F#5   G5  N.C.        G5F#5 C5 F#G5F#G5
 trs I, II
    PM~  PM~  PM    PM   PM          PM~  PM~  PM    PM
    E Q  E Q  E E E E Q  E E +E  E   E Q  E Q  E E E E Q  E E E E
||---------------------------------|------------------------------|
||o--------------------------------|------------------------------|
||---------------------------------|------------------------------|
||---------------------------------|-------------------5----------|
||o-------------5s4---7----4-(4)s5-|-------------5s4---3--4-5-4-5-|
||--0-7--0-6--0-3s2-0-5--0-2-(2)s3-|-0-7--0-6--0-3s2-0----2-3-2-3-|
|
|   W                                W
||---------------------------------|------------------------------|
||o--------------------------------|------------------------------|
||---------------------------------|------------------------------|
||---------------------------------|------------------------------|
||o--------------------------------|------------------------------|
||---------------------------------|------------------------------|


  N.C.        G5F#5 A5   F#5   G5  N.C.        G5F#5 C5 F#G5F#G5
  PM~  PM~  PM    PM   PM          PM~  PM~  PM    PM
  E Q  E Q  E E E E Q  E E +E  E   E Q  E Q  E E E E Q  E E E E
|--------------------------------|-------------------------------||
|--------------------------------|------------------------------o||
|--------------------------------|-------------------------------||
|--------------------------------|-------------------5-----------||
|-------------5s4---7----4-(4)s5-|-------------5s4---3--4-5-4-5-o||
|-0-7--0-6--0-3s2-0-5--0-2-(2)s3-|-0-7--0-6--0-3s2-0----2-3-2-3--||


  H=90
  N.C.(A5)
 7/8              5/8          7/8              9/8
  PM---------------|      PM-----------------|       PM|
  E E E E  E E E   E  E E E E   E E E E  E E E   E E E E  E  E E  E  E
|----------------|------------|----------------|------------------------|
|----------------|------------|----------------|------------------------|
|----------------|------7-----|----------------|---7-----10------12-----|
|-----7-9-10-----|---10-------|-----7-9-10-----|-5-----7----10------12--|
|-0-7--------7-0-|-7----------|-0-7--------7-0-|-----5---------8--------|
|----------------|--------0-3-|----------------|------------------------|


 7/8              5/8          4/4
  PM---------------|      PM-----------------------------------------|
  E E E E  E E E   E  E E E E   S S S  S S S S  S  S S  S  S  S S  S  S
|----------------|------------|-----------------------------------------|
|----------------|------------|-----------------------------------------|
|----------------|------7-----|------------------------------10-9-10-12-|
|-----7-9-10-----|---10-------|-------------------10-9-10-12------------|
|-0-7--------7-0-|-7----------|----------8-7-8-10-----------------------|
|----------------|--------0-3-|-8-7-8-10--------------------------------|


   S  S  S  S  S  S  S  S  S  S  S  S  S  S  S  S
|-------------13-12-13-15-------------15-13-15-17---|
|-13-12-13-15-------------15-13-15-17---------------|
|---------------------------------------------------|
|---------------------------------------------------|
|---------------------------------------------------|
|---------------------------------------------------|


                                                                 ~~~~~~~~~
   S S  S S  S S  S S  S S  S S  S S  S S    S S  S S  S S  S S  Q   +Q
|-----------------------------------------|--------------------------------||
|-17p0-16p0-13p0-16p0-13p0-12p0-13p0-12p0-|-10p0-12p0-13p0-10p0-12--(12)---||
|-----------------------------------------|--------------------------------||
|-----------------------------------------|--------------------------------||
|-----------------------------------------|--------------------------------||
|-----------------------------------------|--------------------------------||


              Breakdown
  Slower H=104
               N.C.(Em)
              6/4
               PM----------------------------------------------|
  W            E E E E E E E E E E E E   E E E E E E E E E E E E
|----------||--------------------------|-------------------------|
|----------||o-------------------------|-------------------------|
|----------||--------------------------|-------------------------|
|----------||--------------------------|-------------------------|
|----------||o-------------2-2---2---2-|-------2-2---2---2---2---|
|----------||--3-2-0-3-2-0-0-0---0---0-|-3-2-0-0-0---0---0---0---|


                            B5  C5   A5  B5  F#5 A5
  PM---------------------------------------------|
  E E E E E E E E E E E E   E E  E E E E E E E E E E  4x
|-------------------------|---------------------------||
|-------------------------|--------------------------o||
|-------------------------|---------------------------||
|-------------------------|---------------------------||
|-------------2-2---2---2-|-9---10---7---9---4---7---o||
|-3-2-0-3-2-0-0-0---0---0-|-7----8---5---7---2---5----||


      N.C.(Em)
      E E E E E E E E E E E E
|-||--------------------------|
|-||o-------------------------|
|-||--------------------------|
|-||--------------------------|
|-||o-------------2-2---2---2-|
|-||--3-2-0-3-2-0-0-0---0---0-|


  E E E E E E E E E E E E   E E E E E E E E E E E E
|-------------------------|-------------------------|
|-------------------------|-------------------------|
|-------------------------|-------------------------|
|-------------------------|-------------------------|
|-------2-2---2---2---2---|-------------2-2---2---2-|
|-3-2-0-0-0---0---0---0---|-3-2-0-3-2-0-0-0---0---0-|


  B5  C5   A5  B5  F#5 A5
  E E  E E E E E E E E E E
|----------------------------||
|---------------------------o||
|----------------------------||
|----------------------------||
|-9---10---7---9---4---7----o||
|-7----8---5---7---2---5-----||


    N.C.(Em)
    E E E E E E E E E E E E   E E E E E E E E E E E E
||--------------------------|-------------------------|
||o-------------------------|-------------------------|
||--------------------------|-------------------------|
||--------------------------|-------------------------|
||o-------------2-2---2---2-|-------2-2---2---2---2---|
||--3-2-0-3-2-0-0-0---0---0-|-3-2-0-0-0---0---0---0---|


  E E E E E E E E E E E E   E E E E E E E E E E E E
|-------------------------|--------------------------||
|-------------------------|-------------------------o||
|-------------------------|--------------------------||
|-------------------------|--------------------------||
|-------------2-2---2---2-|-------------------------o||
|-3-2-0-3-2-0-0-0---0---0-|-7p0-8p0-5p0-7p0-2p0-5p0--||


    N.C.(Gm)
    PM----------------------------------------------|
    E E E E E E E E E E E E   E E E E E E E E E E E E
||--------------------------|-------------------------|
||o-------------------------|-------------------------|
||--------------------------|-------------------------|
||--------------------------|-------------------------|
||o-------------5-5---5---5-|-------5-5---5---5---5---|
||--6-5-3-6-5-3-3-3---3---3-|-6-5-3-3-3---3---3---3---|


  PM--------------------|
  E E E E E E E E E E E E   Q  Q  Q  Q  Q  Q
|-------------------------|--------------------||
|-------------------------|-------------------o||
|-------------------------|--------------------||
|-------------------------|--------------------||
|-------------5-5---5---5-|-5--6-----5--------o||
|-6-5-3-6-5-3-3-3---3---3-|-------8-----5--8---||


  N.C.(Em)
  E E E E E E E E E Q  E   E E E E  E E  E E  E E  E E
|------------------------|-----------------------------|
|------------------------|-----------------------------|
|------------------------|-----------------------------|
|------------------------|-----------------------------|
|---------------5h7------|-----------------------------|
|-3-2-0-3-2-0-0-----0--0-|-8-7-0-0-14p0-15p0-14p0-12p0-|


  E E E E E E E  E  E Q  E    E E  E E E E  E E E E E E
|--------------------------|----------------------------|
|--------------------------|----------------------------|
|--------------------------|----------------------------|
|--------------------------|----------------------------|
|---------------10h12------|----------------------------|
|-8-7-0-8-7-0-0-------0--0-|-10p0-12p0-8p0-10p0-7p0-8p0-|


  E E E E E E E E  E Q  E    E E E E  E E  E E  E E  E E
|-------------------------|------------------------------|
|-------------------------|------------------------------|
|-------------------------|------------------------------|
|-------------------------|------------------------------|
|---------------9h10------|------------------------------|
|-7-5-0-7-5-0-0------0--0-|-10-8-0-0-17p0-19p0-17p0-15p0-|


   E  E E  E  E E E  E  E Q  E    E E  E E  E E  E E  E E  E E
|------------------------------|-------------------------------||
|------------------------------|-------------------------------||
|------------------------------|-------------------------------||
|------------------------------|-------------------------------||
|-------------------14h15------|-------------------------------||
|-12-10-0-12-10-0-0-------0--0-|-14p0-15p0-12p0-14p0-10p0-12p0-||


   Keyboard interlude
    Slower H=98
    G5
    Gtr IV
                                |--3--|
     E  E  E  E  E  E  E  E  E  S  S  S  E  E
||-----------10-------------10----------------|
||o-11p10----------10-11h13----11h13p11-10----|
||--------12----12-------------------------12-|
||--------------------------------------------|
||o-------------------------------------------|
||--------------------------------------------|
|
|   Gtrs I, II
|    PM---------------------------------|
|    E  E  E  E  E  E  E  E  E  E        E  E
||--------------------------------------------|
||o-------------------------------------------|
||--------------------------------------------|
||--------------------------------------------|
||o--5--5-----5-----5--5-----5-----------5----|
||---3--3-----3-----3--3-----3-----------3----|


  Gb5                            G5
 5/4                            6/4
                                                             |--3--|
   E  E  E E  E  E  E  E  E  E    E  E  E  E  E  E  E  E  E  S  S  S  E  E
|----------9-------------------|----------10-------------10----------------|
|-11p10---------10-11h13----10-|-11p10----------10-11h13----11h13p11-10----|
|-------12---12----------12----|-------12----12-------------------------12-|
|------------------------------|-------------------------------------------|
|------------------------------|-------------------------------------------|
|------------------------------|-------------------------------------------|
|
|  PM----------------------------------------------------------------|
|  E  E  E E  E  E  E  E  E  E    E  E  E  E  E  E  E  E  E  E        E  E
|------------------------------|-------------------------------------------|
|------------------------------|-------------------------------------------|
|------------------------------|-------------------------------------------|
|------------------------------|-------------------------------------------|
|--4--4----4-----4--4-----4----|--5--5-----5-----5--5-----5-----------5----|
|--3--3----3-----3--3-----3----|--3--3-----3-----3--3-----3-----------3----|


  Gb5                          A5
   E  E  E E  E  E  E  E  E  E  E  E
|----------9-------------------------||
|-11p10---------10-11h13-10h11----10-||
|-------12---12----------------12----||
|------------------------------------||
|------------------------------------||
|------------------------------------||
|
|  PM--------------------------|
|  E  E  E E  E  E  E  E  E  E  E  E
|------------------------------------||
|------------------------------------||
|------------------------------------||
|------------------------------------||
|--4--4----4-----4--4-----4-----7----||
|--3--3----3-----3--3-----3-----5----||


  Bb5                                         Bbb5
                                             5/4
                              |--3--|
   E  E  E  E  E  E  E  E  E  S  S  S  E  E    E  E  E  E  E  E  E  E  E  E
|---------13-------------13----------------|----------12-------------------|
|14p13----------13-14h16----14h16p14-13----|-14p13----------13-14h16----13-|
|-------15----15-------------------------15|--------15----15----------15---|
|------------------------------------------|-------------------------------|
|------------------------------------------|-------------------------------|
|------------------------------------------|-------------------------------|
|
| PM---------------------------------|        PM------------------------|
| E  E  E  E  E  E  E  E  E  E        E  E    E  E  E  E  E  E  E  E  E  E
|------------------------------------------|-------------------------------|
|------------------------------------------|-------------------------------|
|------------------------------------------|-------------------------------|
|------------------------------------------|-------------------------------|
|-8--8-----8-----8--8-----8-----------8----|--7--7-----7-----7--7-----7----|
|-6--6-----6-----6--6-----6-----------6----|--6--6-----6-----6--6-----6----|


  Bb5
 6/4
                              |--3--|
   E  E  E  E  E  E  E  E  E  S  S  S  E  E
|----------13-------------13----------------|
|-14p13----------13-14h16----14h16p14-13----|
|-------15----15-------------------------15-|
|-------------------------------------------|
|-------------------------------------------|
|-------------------------------------------|
|
|  PM---------------------------------|
|  E  E  E  E  E  E  E  E  E  E        E  E
|-------------------------------------------|
|-------------------------------------------|
|-------------------------------------------|
|-------------------------------------------|
|--8--8-----8-----8--8-----8-----------8----|
|--6--6-----6-----6--6-----6-----------6----|


  Bbb5
   E  E  E  E  E  E  E  E  E  E  E  E
|----------12--------------------------||
|-14p13----------13-14h16-13h14----13-o||
|-------15----15----------------15-----||
|--------------------------------------||
|-------------------------------------o||
|--------------------------------------||
|
|  PM---------------------------|
|  E  E  E  E  E  E  E  E  E  E  E  E
|--------------------------------------||
|-------------------------------------o||
|--------------------------------------||
|--------------------------------------||
|--7--7-----7-----7--7-----7-----7----o||
|--6--6-----6-----6--6-----6-----6-----||


  G5                                          Gbb5
                                             5/4
                              |--3--|
  E  E  E  E  E  E  E  E  E  S  S  S  E  E    E  E  E  E  E  E  E  E  E  E
|---------10-------------10----------------|-----------9-------------------|
|11p10----------10-11h13----11h13p11-10----|-11p10----------10-11h13----10-|
|------12----12-------------------------12-|-------12----12----------12----|
|------------------------------------------|-------------------------------|
|------------------------------------------|-------------------------------|
|------------------------------------------|-------------------------------|
|
| Gtr V
|                             |--3--|
| E  E  E  E  E  E  E  E  E  S  S  S  E  E    E  E  E  E  E  E  E  E  E  E
|---------15-------------15----------------|----------15-------------------|
|15p13----------13-15h18----15h18p15s13----|-14p13----------13-14h16----13-|
|------15----15-------------------------15-|-------15----15----------15----|
|------------------------------------------|-------------------------------|
|------------------------------------------|-------------------------------|
|------------------------------------------|-------------------------------|
|
| Gtrs I, II
| PM---------------------------------|        PM----------------------------
| E  E  E  E  E  E  E  E  E  E        E  E    E  E  E  E  E  E  E  E  E  E
|------------------------------------------|-------------------------------|
|------------------------------------------|-------------------------------|
|-7--7-----7-----7--7-----7-----------7----|--6--6-----6-----6--6-----6----|
|-5--5-----5-----5--5-----5-----------5----|--5--5-----5-----5--5-----5----|
|-5--5-----5-----5--5-----5-----------5----|--4--4-----4-----4--4-----4----|
|-3--3-----3-----3--3-----3-----------3----|--3--3-----3-----3--3-----3----|


  G5
 6/4
                              |--3--|
   E  E  E  E  E  E  E  E  E  S  S  S  E  E
|----------10-------------10-----------------|
|-11p10----------10-11h13----11h13p11-10-----|
|-------12----12-------------------------12--|
|--------------------------------------------|
|--------------------------------------------|
|--------------------------------------------|
|
|                             |--3--|
|  E  E  E  E  E  E  E  E  E  S  S  S  E  E
|----------15-------------15-----------------|
|-15p13----------13-15h18----15h18p15s13-----|
|-------15----15-------------------------15--|
|--------------------------------------------|
|--------------------------------------------|
|--------------------------------------------|
|
|-------------------------------------|
|  E  E  E  E  E  E  E  E  E  E        E  E
|--------------------------------------------|
|--------------------------------------------|
|--7--7-----7-----7--7-----7-----------7-----|
|--5--5-----5-----5--5-----5-----------5-----|
|--5--5-----5-----5--5-----5-----------5-----|
|--3--3-----3-----3--3-----3-----------3-----|


  Cbb5                          Bbb5
   E  E  E  E  E  E  E  E  E  E  E  E
|-----------9-------------------------||
|-11p10----------10-11h13-10h11----10-||
|-------12----12----------------12----||
|-------------------------------------||
|-------------------------------------||
|-------------------------------------||
|
|  E  E  E  E  E  E  E  E  E  E  E  E
|----------15-------------------------||
|-14p13----------13-14h16-13h14----13-||
|-------15----15----------------15----||
|-------------------------------------||
|-------------------------------------||
|-------------------------------------||
|
|  PM-----------------------------------
|  E  E  E  E  E  E  E  E  E  E  E  E
|-------------------------------------||
|-------------------------------------||
|--6--6-----6-----6--6-----6-----9----||
|--5--5-----5-----5--5-----5-----8----||
|--4--4-----4-----4--4-----4-----7----||
|--3--3-----3-----3--3-----3-----6----||


  Bb5                                         Bbb5
                                             5/4
                              |--3--|
  E  E  E  E  E  E  E  E  E  S  S  S  E  E    E  E  E  E  E  E  E  E  E  E
|---------13-------------13----------------|----------12-------------------|
|14p13----------13-14h16----14h16p14-13----|-14p13----------13-14h16----13-|
|------15----15-------------------------15-|-------15----15----------15----|
|------------------------------------------|-------------------------------|
|------------------------------------------|-------------------------------|
|------------------------------------------|-------------------------------|
|
|                             |--3--|
|  E  E  E  E  E  E  E  E  E  S  S  S  E  E    E  E  E  E  E  E  E  E  E  E
|----------18-------------18----------------|----------18---------------------------------------------------------------||
|-18p16----------16-18h21----18h21p18s16----|-17p16----------16-17h19----16---------------------------------------------||
|-------18----18-------------------------18-|-------18----18----------18------------------------------------------------||
|-------------------------------------------|---------------------------------------------------------------------------||
|-------------------------------------------|------------------------------|------------------------------------------|-||
|
|-------------------------------------|        PM------------------------|
| E  E  E  E  E  E  E  E  E  E        E  E    E  E  E  E  E  E  E  E  E  E
|-------------------------------------------|------------------------------|
|-------------------------------------------|------------------------------|
|-10-10----10----10-10----10----------10----|--9--9-----9-----9--9-----9---|
|--8--8-----8-----8--8-----8-----------8----|--8--8-----8-----8--8-----8---|
|--8--8-----8-----8--8-----8-----------8----|--7--7-----7-----7--7-----7---|
|--6--6-----6-----6--6-----6-----------6----|--6--6-----6-----6--6-----6---|


  Bb5
 6/4
                              |--3--|
   E  E  E  E  E  E  E  E  E  S  S  S  E  E
|----------13-------------13----------------|
|-14p13----------13-14h16----14h16p14-13----|
|-------15----15-------------------------15-|
|-------------------------------------------|
|-------------------------------------------|
|-------------------------------------------|
|
|                             |--3--|
|  E  E  E  E  E  E  E  E  E  S  S  S  E  E
|----------18-------------18----------------|
|-18p16----------16-18h21----18h21p18s16----|
|-------18----18-------------------------18-|
|-------------------------------------------|
|-------------------------------------------|
|-------------------------------------------|
|
|  PM---------------------------------|
|  E  E  E  E  E  E  E  E  E  E        E  E
|-------------------------------------------|
|-------------------------------------------|
|-10-10----10----10-10----10----------10----|
|--8--8-----8-----8--8-----8-----------8----|
|--8--8-----8-----8--8-----8-----------8----|
|--6--6-----6-----6--6-----6-----------6----|


  Bbb5
   E  E  E  E  E  E  E  E  E  E  E  E
|----------12-------------------------||
|-14p13----------13-14h16-13h14----13-||
|-------15----15----------------15----||
|-------------------------------------||
|-------------------------------------||
|-------------------------------------||
|
|  E  E  E  E  E  E  E  E  E  E  E  E
|----------18-------------------------||
|-17p16----------16-17h19-16h17----16-||
|-------18----18----------------18----||
|-------------------------------------||
|-------------------------------------||
|-------------------------------------||
|
|  PM---------------------------|
|  E  E  E  E  E  E  E  E  E  E  E  E
|-------------------------------------||
|-------------------------------------||
|--9--9-----9-----9--9-----9-----9----||
|--8--8-----8-----8--8-----8-----8----||
|--7--7-----7-----7--7-----7-----7----||
|--6--6-----6-----6--6-----6-----6----||


  G5                                          Gbb5
                                             5/4
                              |--3--|
  E  E  E  E  E  E  E  E  E  S  S  S  E  E    E  E  E  E  E  E  E  E  E  E
|---------10-------------10----------------|-----------9-------------------|
|11p10----------10-11h13----11h13p11-10----|-11p10----------10-11h13----10-|
|------12----12-------------------------12-|-------12----12----------12----|
|------------------------------------------|-------------------------------|
|------------------------------------------|-------------------------------|
|------------------------------------------|-------------------------------|
|
|                             |--3--|
| E  E  E  E  E  E  E  E  E  S  S  S  E  E    E  E  E  E  E  E  E  E  E  E
|---------15-------------15----------------|----------15-------------------|
|15p13----------13-15h18----15h18p15s13----|-14p13----------13-14h16----13-|
|------15----15-------------------------15-|-------15----15----------15----|
|------------------------------------------|-------------------------------|
|------------------------------------------|-------------------------------|
|------------------------------------------|-------------------------------|
|
| E  E  E  E  E  E  E  E  E  E        E  E    E  E  E  E  E  E  E  E  E  E
|------------------------------------------|-------------------------------|
|-8--8-----8-----8--8-----8-----------8----|--8--8-----8-----8--8-----8----|
|-7--7-----7-----7--7-----7-----------7----|--6--6-----6-----6--6-----6----|
|-5--5-----5-----5--5-----5-----------5----|--5--5-----5-----5--5-----5----|
|------------------------------------------|-------------------------------|
|------------------------------------------|-------------------------------|


  G5
 6/4
                              |--3--|
   E  E  E  E  E  E  E  E  E  S  S  S  E  E
|----------10-------------10-----------------|
|-11p10----------10-11h13----11h13p11-10-----|
|-------12----12-------------------------12--|
|--------------------------------------------|
|--------------------------------------------|
|--------------------------------------------|
|
|                             |--3--|
|  E  E  E  E  E  E  E  E  E  S  S  S  E  E
|----------15-------------15-----------------|
|-15p13----------13-15h18----15h18p15s13-----|
|-------15----15-------------------------15--|
|--------------------------------------------|
|--------------------------------------------|
|--------------------------------------------|
|
|  E  E  E  E  E  E  E  E  E  E        E  E
|--------------------------------------------|
|--8--8-----8-----8--8-----8-----------8-----|
|--7--7-----7-----7--7-----7-----------7-----|
|--5--5-----5-----5--5-----5-----------5-----|
|--------------------------------------------|
|--------------------------------------------|


  Gbb5                          A5
   E  E  E  E  E  E  E  E  E  E  E  E
|-----------9-------------------------||
|-11p10----------10-11h13-10h11----10-||
|-------12----12----------------12----||
|-------------------------------------||
|-------------------------------------||
|-------------------------------------||
|
|  E  E  E  E  E  E  E  E  E  E  E  E
|----------15-------------------------||
|-14p13----------13-14h16-13h14----13-||
|-------15----15----------------15----||
|-------------------------------------||
|-------------------------------------||
|-------------------------------------||
|
|  E  E  E  E  E  E  E  E  E  E  E  E
|-------------------------------------||
|--8--8-----8-----8--8-----8----------||
|--6--6-----6-----6--6-----6-----9----||
|--5--5-----5-----5--5-----5-----7----||
|-------------------------------------||
|-------------------------------------||


  Bb5                                         Bbb5
                                             5/4
                              |--3--|
  E  E  E  E  E  E  E  E  E  S  S  S  E  E    E  E  E  E  E  E  E  E  E  E
|---------13-------------13----------------|----------12-------------------|
|14p13----------13-14h16----14h16p14-13----|-14p13----------13-14h16----13-|
|------15----15-------------------------15-|-------15----15----------15----|
|------------------------------------------|-------------------------------|
|------------------------------------------|-------------------------------|
|------------------------------------------|-------------------------------|
|
|                             |--3--|
| E  E  E  E  E  E  E  E  E  S  S  S  E  E    E  E  E  E  E  E  E  E  E  E
|---------18-------------18----------------|----------18-------------------|
|18p16----------16-18h21----18h21p18s16----|-17p16----------16-17h19----16-|
|------18----18-------------------------18-|-------18----18----------18----|
|------------------------------------------|-------------------------------|
|------------------------------------------|-------------------------------|
|------------------------------------------|-------------------------------|
|
| E  E  E  E  E  E  E  E  E  E        E  E    E  E  E  E  E  E  E  E  E  E
|-------------------------------------------|------------------------------|
|-11-11----11----11-11----11----------11----|-11-11----11----11-11----11---|
|-10-10----10----10-10----10----------10----|--9--9-----9-----9--9-----9---|
|--8--8-----8-----8--8-----8-----------8----|--8--8-----8-----8--8-----8---|
|------------------------------------------|-------------------------------|
|------------------------------------------|-------------------------------|


  Bb5
 6/4
                              |--3--|
   E  E  E  E  E  E  E  E  E  S  S  S  E  E
|----------13-------------13----------------|
|-14p13----------13-14h16----14h16p14-13----|
|-------15----15-------------------------15-|
|-------------------------------------------|
|-------------------------------------------|
|-------------------------------------------|
|
|                             |--3--|
|  E  E  E  E  E  E  E  E  E  S  S  S  E  E
|----------18-------------18----------------|
|-18p16----------16-18h21----18h21p18s16----|
|-------18----18-------------------------18-|
|-------------------------------------------|
|-------------------------------------------|
|-------------------------------------------|
|
|  E  E  E  E  E  E  E  E  E  E        E  E
|-------------------------------------------|
|-11-11----11----11-11----11----------11----|
|-10-10----10----10-10----10----------10----|
|--8--8-----8-----8--8-----8-----------8----|
|-------------------------------------------|
|-------------------------------------------|


  Bbb5                                   C#5
                                                                     |--3--|
   E  E  E  E  E  E  E  E  E  E  E  E     E  E  E  E  E  E  E  E  E  S  S  S  E  E
|----------12---------------------||---------16-----------16-------------|
|14p13-------13-14h16-13h14----13-||-17p16--------16-17h19--17h19p17-16--|
|-------15----15------------15----||-------18---18---------------------18|
|---------------------------------||-------------------------------------|
|---------------------------------||-------------------------------------|
|---------------------------------||-------------------------------------|
|
|E  E  E  E  E  E  E  E  E  E  E  E     E  E  E  E  E  E  E  E  E  S  S  S  E  E
|-------18----------------------||---------21-------------21---------------|
|17p16------16-17h19-16h17----16||21p19----------19-21h24----21h24p21s19---|
|-----18--18-------------18-----||------21----21-------------------------21|
|-------------------------------||-----------------------------------------|
|-------------------------------||-----------------------------------------|
|-------------------------------||-----------------------------------------|
|

|
|E  E  E  E  E  E  E  E  E  E  E  E     E  E  E  E  E  E  E  E  E  E        E  E
|-----------------------------||-------------------------------------------|
|-11-11----11----11-11----11----11----||-14-14----14----14-14----14------14|
|--9--9-----9-----9--9-----9-----9----||-13-13----13----13-13----13------13|
|--8--8-----8-----8--8-----8-----8----||-11-11----11----11-11----11------11|
|-------------------------------------||-----------------------------------|
|-------------------------------------||-----------------------------------|


  C#b5                            C#5
 5/4                             6/4
                                                              |--3--|
  E  E  E  E  E  E  E  E  E  E    E  E  E  E  E  E  E  E  E  S  S  S  E  E
|---------16-------------------|----------16-------------16----------------|
|17p16----------16-17h19----16-|-17p16----------16-17h19----17h19p17-16----|
|------18----18----------18----|-------18----18-------------------------18-|
|------------------------------|-------------------------------------------|
|------------------------------|-------------------------------------------|
|------------------------------|-------------------------------------------|
|
|                                                             |--3--|
| E  E  E  E  E  E  E  E  E  E    E  E  E  E  E  E  E  E  E  S  S  S  E  E
|---------21-------------------|----------21-------------21----------------|
|20p19----------19-20h22----19-|-21p19----------19-21h24----21h24p21s19----|
|------21----21----------21----|-------21----21-------------------------21-|
|------------------------------|-------------------------------------------|
|------------------------------|-------------------------------------------|
|------------------------------|-------------------------------------------|
|
| E  E  E  E  E  E  E  E  E  E    E  E  E  E  E  E  E  E  E  E        E  E
|------------------------------|-------------------------------------------|
|14-14----14----14-14----14----|-14-14----14----14-14----14----------14----|
|12-12----12----12-12----12----|-13-13----13----13-13----13----------13----|
|11-11----11----11-11----11----|-11-11----11----11-11----11----------11----|
|------------------------------|-------------------------------------------|
|------------------------------|-------------------------------------------|

  C#b5
   E  E  E  E  E  E  E  E  E  E  E  E
|----------16---------------------------||
|-17p16----------16-17h19-16h17----16---||
|-------18----18----------------18------||
|---------------------------------------||
|---------------------------------------||
|---------------------------------------||
|
|  E  E  E  E  E  E  E  E  E  E  E  E
|----------21---------------------------||
|-20p19----------19-20h22-19h20----19---||
|-------21----21----------------21------||
|---------------------------------------||
|---------------------------------------||
|---------------------------------------||
|
|  E  E  E  E  E  E  E  E  E  E  E  E
|---------------------------------------||
|-14-14----14----14-14----14----14------||
|-12-12----12----12-12----12----12------||
|-11-11----11----11-11----11----11------||
|---------------------------------------||
|---------------------------------------||


  E5                                          Eb5
                                             5/4
                              |--3--|
  E  E  E  E  E  E  E  E  E  S  S  S  E  E    E  E  E  E  E  E  E  E  E  E
|---------19-------------19----------------|----------19-------------------|
|20p19----------19-20h22----20h22p20-19----|-20p19----------19-20h22----19-|
|------21----21-------------------------21-|-------21----21----------21----|
|------------------------------------------|-------------------------------|
|------------------------------------------|-------------------------------|
|------------------------------------------|-------------------------------|
|
|                             |--3--|
| E  E  E  E  E  E  E  E  E  S  S  S  E  E    E  E  E  E  E  E  E  E  E  E
|---------24-------------24----------------|----------24-------------------|
|24p22----------22-24h27----24h27p24s22----|-23p22----------22-23h25----22-|
|------24----24-------------------------24-|-------24----24----------24----|
|------------------------------------------|-------------------------------|
|------------------------------------------|-------------------------------|
|------------------------------------------|-------------------------------|
|
| E  E  E  E  E  E  E  E  E  E        E  E    E  E  E  E  E  E  E  E  E  E
|------------------------------------------|-------------------------------|
|17-17----17----17-17----17----------17----|-17-17----17----17-17----17----|
|16-16----16----16-16----16----------16----|-15-15----15----15-15----15----|
|14-14----14----14-14----14----------14----|-14-14----14----14-14----14----|
|------------------------------------------|-------------------------------|
|------------------------------------------|-------------------------------|


  E5
 6/4
                              |--3--|
   E  E  E  E  E  E  E  E  E  S  S  S  E  E
|----------19-------------19----------------|
|-20p19----------19-20h22----20h22p20-19----|
|-------21----21-------------------------21-|
|-------------------------------------------|
|-------------------------------------------|
|-------------------------------------------|
|
|                             |--3--|
|  E  E  E  E  E  E  E  E  E  S  S  S  E  E
|----------24-------------24----------------|
|-24p22----------22-24h27----24h27p24s22----|
|-------24----24-------------------------24-|
|-------------------------------------------|
|-------------------------------------------|
|-------------------------------------------|
|
|  E  E  E  E  E  E  E  E  E  E        E  E
|-------------------------------------------|
|-17-17----17----17-17----17----------17----|
|-16-16----16----16-16----16----------16----|
|-14-14----14----14-14----14----------14----|
|-------------------------------------------|
|-------------------------------------------|


  Eb5
   E  E  E  E  E  E  E  E  E  E  E  E
|----------19-------------------------||
|-20p19----------19-20h22-19h20----19-||
|-------21----21----------------21----||
|-------------------------------------||
|-------------------------------------||
|-------------------------------------||
|
|  E  E  E  E  E  E  E  E  E  E  E  E
|----------24-------------------------||
|-23p22----------22-23h25-22h23----22-||
|-------24----24----------------24----||
|-------------------------------------||
|-------------------------------------||
|-------------------------------------||
|
|  E  E  E  E  E  E  E  E  E  E  E  E
|-------------------------------------||
|-17-17----17----17-17----17----17----||
|-15-15----15----15-15----15----15----||
|-14-14----14----14-14----14----14----||
|-------------------------------------||
|-------------------------------------||


 Guitar Break
  G5/D                   Gb5
 6/4                    5/4
  Gtr I
  E E Q  H      E E Q    E E Q  H      E E
|----------------------|-------------------|
|-8-8-----------8-8----|-8-8-----------8-8-|
|-7-7-----------7-7----|-6-6-----------6-6-|
|-5-5-----------5-5----|-5-5-----------5-5-|
|-5-5-----------5-5----|-5-5-----------5-5-|
|----------------------|-------------------|
|
| Gtr II
| E E Q  E E Q  H        H      E E H
|----------------------|-------------------|
|-8-8----8-8-----------|--------8-8--------|
|-7-7----7-7-----------|--------6-6--------|
|-5-5----5-5-----------|--------5-5--------|
|-5-5----5-5-----------|--------5-5--------|
|----------------------|-------------------|


  G5/D                    Eb5
 6/4
  H.         E E H        H      Q  E E H
|-----------------------|-----------------------||
|------------8-8--------|-----------8-8---------||
|------------7-7--------|-----------6-6---------||
|------------5-5--------|-----------5-5---------||
|------------5-5--------|-----------5-5---------||
|-----------------------|-----------------------||
|
| Q   E E Q  H      E E   Q  E E Q  H      E E
|-----------------------|-----------------------||
|-----8-8-----------8-8-|----8-8-----------8-8S=||
|-----7-7-----------7-7-|----6-6-----------6-6S=||
|-----5-5-----------5-5-|----5-5-----------5-5S=||
|-----5-5-----------5-5-|----5-5-----------5-5S=||
|-----------------------|-----------------------||


  Bb5/F                        Bbb5
                              5/4
   H        E  E Q   H          E  E Q   E  E H
|----------------------------|-------------------------|
|----------11-11-------------|-11-11----11-11----------|
|----------10-10-------------|--9--9-----9--9----------|
|-----------8--8-------------|--8--8-----8--8----------|
|-----------8--8-------------|--8--8-----8--8----------|
|----------------------------|-------------------------|
|
|  E  E Q   H        E  E Q     W                 E  E
|----------------------------|-------------------------|
|-11-11-------------11-11----|-------------------11-11-|
|-10-10-------------10-10----|--------------------9--9-|
|--8--8--------------8--8----|--------------------8--8-|
|--8--8--------------8--8----|--------------------8--8-|
|----------------------------|-------------------------|


     Bb5/F                        Bbb5
 6/4
  Q   E  E Q   H        E  E   Q   H        E  E Q   E  E
|----------------------------|----------------------------||
|----11-11-------------11-11-|-------------11-11----11-11-||
|----10-10-------------10-10-|--------------9--9-----9--9-||
|-----8--8--------------8--8-|--------------8--8-----8--8-||
|-----8--8--------------8--8-|--------------8--8-----8--8-||
|----------------------------|----------------------------||
|
| Q   H        E  E Q   Q      Q   E  E Q   H        E  E
|----------------------------|----------------------------||
|-------------11-11----------|----11-11-------------11-11-||
|-------------10-10----------|-----9--9--------------9--9-||
|--------------8--8----------|-----8--8--------------8--8-||
|--------------8--8----------|-----8--8--------------8--8-||
|----------------------------|----------------------------||


  N.C.
  Gtrs I, II
  E E E  E E  E E E  E E E  E
|-----------------------------|
|-----------------------------|
|-----------------------------|
|----------------------7-8-10-|
|---------------7-9-10--------|
|-9-8-9-11-9-11---------------|


 5/4                            6/4
   E  E  E  E  E  E E  E  E  E   E E E  E E  E E E  E E E  E
|------------------------------|------------------------------|
|---------------------------10-|------------------------------|
|-------------------9-11-12----|------------------------------|
|-11-10-11-13-11-13------------|----------------------7-8-10--|
|------------------------------|---------------7-9-10---------|
|------------------------------|-9-8-9-11-9-11----------------|


   E  E  E  E  E  E E  E  E  E  E  E     E E  E  E  E  E E  E  E E E  E
|------------------------------------||---------------------------------|
|---------------------------10-11-13-||---------------------------------|
|-------------------9-11-12----------||---------------------------------|
|-11-10-11-13-11-13------------------||--------------------------8-9-11-|
|------------------------------------||------------------8-10-11--------|
|------------------------------------||-10-9-10-12-10-12----------------|


   E  E  E  E  E  E  E  E  E  E  E  E
|--------------------------------------|
|----------------------------11-12-14--|
|-------------------10-12-13-----------|
|-12-11-12-14-12-14--------------------|
|--------------------------------------|
|--------------------------------------|


  Gtr I
   |--3--|  |--3--|  |--3--|  |--3--|  |--3--|  |--3--|
   E  E  E  E  E  E  E  E  E  E  E  E  E  E  E  E  E  E
|-------------------------------------19-17-16-20-19-17-|
|-13-12-10-15-13-12-18-16-15-19-18-16-------------------|
|-------------------------------------------------------|
|-------------------------------------------------------|
|-------------------------------------------------------|
|-------------------------------------------------------|
|
| Gtr II
|  |--3--|  |--3--|  |--3--|  |--3--|  |--3--|  |--3--|
|  E  E  E  E  E  E  E  E  E  E  E  E  E  E  E  E  E  E
|-------------------------------------19-17-16-20-19-17-|
|-13-12-10-15-13-12-18-16-15-19-18-16-------------------|
|-------------------------------------------------------|
|-------------------------------------------------------|
|-------------------------------------------------------|
|-------------------------------------------------------|


   S  S  S  S  S  S  S  S  S  S  S  S  S  S  S  S  S  S  S  S  S  S  S  S
|-19-20-19-17-------------------------------------------------------------||
|-------------19-16-15-19-16-15-------------------------------------------||
|-------------------------------17-16-14-17-16-14-------------------------||
|-------------------------------------------------16-14-13----------------||
|----------------------------------------------------------15-14-12-------||
|-------------------------------------------------------------------15-14-||
|
|  S  S  S  S  S  S  S  S  S  S  S  S  S  S  S  S  S  S  S  S  S  S  S  S
|-22-23-22-20-------------------------------------------------------------||
|-------------22-20-19-22-20-19-------------------------------------------||
|-------------------------------20-19-17-20-19-17-------------------------||
|-------------------------------------------------19-17-16----------------||
|----------------------------------------------------------18-17-15-------||
|-------------------------------------------------------------------18-17-||


 Return
  Q=188
  E5                          Bb5                                 G5
 6/8
  Gtrs I, II
  PM----------------------------------------------------------------|
  E E E E E E   E E E E E E   E E E E E E   E E E E E E   E E E E E E
|-------------|-------------|-------------|-------------|-------------|
|-------------|-------------|-------------|-------------|-------------|
|-------------|-------------|-------------|-------------|-------------|
|-------------|-------------|-------------|-------------|-------------|
|-2---2---2---|-2---2---2---|-8-8-8-8-2---|-2---2---2---|-2---2---5-5-|
|-0---0---0---|-0---0---0---|-6-6-6-6-0---|-0---0---0---|-0---0---3-3-|


      E5                          Cb5
  PM---------------------------------------
  E E E E E E   E E E E E E   E E E E E E
|-------------|-------------|-------------|
|-------------|-------------|-------------|
|-------------|-------------|-------------|
|-------------|-------------|-----4-4-4-4-|
|-5-5-2---2---|-2---2---2---|-2---3-3-3-3-|
|-3-3-0---0---|-0---0---0---|-0-----------|


  E5                          Dsus2
                             3/8
 -------------------------|
  E E E E E E   E E E E E E   E E E
|-------------|-------------|---------||
|-------------|-------------|---------||
|-------------|-------------|-9-9-9---||
|-------------|-------------|-7-7-7---||
|-2---2---2---|-2---2---2---|-5-5-5---||
|-0---0---0---|-0---0---0---|---------||


 Keyboard solo
    E5                        Bb5       E5                        Gsus2
 4/4
  E E E E E E E E   E E E E E E E E   E E E E E E E E   E E E E E E E E
|-----------------|-----------------|-----------------|-----------------|
|-----------------|-----------------|-----------------|-----------------|
|-9---------------|-----------------|-----------------|-----------------|
|-7---------------|-----------------|-----------------|-----------7-7-7-|
|-5-2---2---2---2-|---2---2---8-8-8-|-8-2---2---2---2-|---2---2---5-5-5-|
|---0---0---0---0-|---0---0---6-6-6-|-6-0---0---0---0-|---0---0---3-3-3-|


    E5                        Cb5       E5                        Dsus2
  E E E E E E E E   E E E E E E E E   E E E E E E E E   E E E E E E E E
|-----------------|-----------------|-----------------|-----------------|
|-----------------|-----------------|-----------------|-----------------|
|-----------------|-----------5-5-5-|-5---------------|-----------9-9-9-|
|-7---------------|-----------4-4-4-|-4---------------|-----------7-7-7-|
|-5-2---2---2---2-|---2---2---3-3-3-|-3-2---2---2---2-|---2---2---5-5-5-|
|-3-0---0---0---0-|---0---0---------|---0---0---0---0-|---0---0---------|


    E5                                F#G5
   4/4
        PM    PM    PM      PM
    E E E  E  E  E  E  E    E  E  E E E E E E
||------------------------|-------------------|
||o--------5-----5-----5--|----5--------------|
||---------4-----4-----4--|----4--------------|
||---------2-----2-----2--|----2--------------|
||o-2-2---(2)-2-(2)-2-(2)-|-2-(2)-2-2-4s5-5-5-|
||--0-0-0-----0-----0-----|-0-----0-0-2s3-3-3-|


  E5                                G5Bb5
      PM    PM    PM      PM
  E E E  E  E  E  E  E    E  E  E E E E E E
|-----------------------|--------------------|
|--------5-----5-----5--|----5---------------|
|--------4-----4-----4--|----4---------------|
|--------2-----2-----2--|----2---------------|
|-2-2---(2)-2-(2)-2-(2)-|-2-(2)-2-2-5s8-8-8--|
|-0-0-0-----0-----0-----|-0-----0-0-3s6-6-6--|


  E5                                F#G5
      PM    PM    PM      PM
  E E E  E  E  E  E  E    E  E  E E E E E E
|-----------------------|-------------------|
|--------5-----5-----5--|----5--------------|
|--------4-----4-----4--|----4--------------|
|--------2-----2-----2--|----2--------------|
|-2-2---(2)-2-(2)-2-(2)-|-2-(2)-2-2-4s5-5-5-|
|-0-0-0-----0-----0-----|-0-----0-0-2s3-3-3-|


  E5                N.C.                F5
      PM    PM    PM       ~
  E E E  E  E  E  E  E   E E +E   E E E E E
|----------------------|-----------------------||
|--------5-----5-------|--------------------o--||
|--------4-----4-------|-----------------------||
|--------2-----2-------|-----------------------||
|-2-2---(2)-2-(2)-2----|-5----------2---3-3-o--||
|-0-0-0-----0-----0-/7-|---7-(7)-3---3-1-1-----||


 Chorus
  Csus2
 7/4                   8/4
  Gtr I
  H    Q.   Q.   H      H    Q.   Q.   Q   H
|-----------3---------|-----------3-------------------------------|
|------3---------3----|------3---------3--------------------------|
|-5-------------------|-5------------------5----------------------|
|-5-------------------|-5-----------------------------------------|
|-3-------------------|-3-----------------------------------------|
|---------------------|-------------------------------------------|
|
| Gtr II
| H    Q.   Q.   H      H    Q.   Q.   Q   S  S  S  S  S  S  S  S
|-----------3---------|-----------3-------------------------------|
|------3---------3----|------3---------3--13-15-13-12-------------|
|-5-------------------|-5-----------------------------12-14-12-11-|
|-5-------------------|-5-----------------------------------------|
|-3-------------------|-3-----------------------------------------|
|---------------------|-------------------------------------------|


  N.C.(Em)
 7/4
  Q  Q   Q   E E +E  E +E   E  +E   E
|----------------------------------------|
|----------------------------------------|
|--------9---9-------------11-(11)-11----|
|--------x---x--------------x-------x----|
|--------7---7--------------9--(9)--9----|
|-0--0---------0-(0)-0-(0)---------------|
|
| Q  Q   Q   E E +E  E +E   E  +E   E
|----------------------------------------|
|----------------------------------------|
|-------12--12-------------14-(14)-14----|
|--------x---x--------------x-------x----|
|-------10--10-------------12-(12)-12----|
|-0--0---------0-(0)-0-(0)---------------|


                                          Csus2
 8/4                                     7/4
                                          Gtrs I, II
  Q  Q   Q   E E +E  E +E   Q   +E   Q    H    Q.   Q.   H
|---------------------------------------|-----------3---------|
|---------------------------------------|------3---------3----|
|-------12--12-------------14--(14)s16--|-5-------------------|
|--------x---x--------------x-----------|-5-------------------|
|-------10--10-------------12--(12)s14--|-3-------------------|
|-0--0---------0-(0)-0-(0)--------------|---------------------|
|
| Q  Q   Q   E E +E  E +E   Q   +E   Q    W
|---------------------------------------|---------------------|
|---------------------------------------|---------------------|
|-------16--16-------------17--(17)s19--|---------------------|
|--------x---x--------------x-----------|---------------------|
|-------14--14-------------15--(15)s17--|---------------------|
|-0--0---------0-(0)-0-(0)--------------|---------------------|


                    D5/A   G5   A5   F#5  C5     N.C.          F5
 8/4                      10/4
                                                                ~~~
                                                 |-3-| |-3-|
  H    Q.   Q.   Q  H      Q.   Q.   Q  E E +Q   E E E E E E E  Q.
|-----------3------------|--------------------------------------------||
|------3---------3-------|--------------------------------------------||
|-5----------------------|-----------------------5-2------------------||
|-5-----------------7----|----------------5-(5)------4-1--------------||
|-3-----------------5----|-5----7----4--x-3-(3)----------3-0-x-[8]----||
|-------------------5----|-3----5----2--x--------------------x--------||


   Bridge
    N.C.        G5F#5 A5   F#5   G5  N.C.        G5F#5 C5 F#G5F#G5
   8/4
    PM~  PM~  PM    PM   PM          PM~  PM~  PM    PM
    E Q  E Q  E E E E Q  E E +E  E   E Q  E Q  E E E E Q  E E E E  4x
||---------------------------------|-------------------------------||
||o--------------------------------|------------------------------o||
||---------------------------------|-------------------------------||
||---------------------------------|-------------------5-----------||
||o-------------5s4---7----4-(4)s5-|-------------5s4---3--4-5-4-5-o||
||--0-7--0-6--0-3s2-0-5--0-2-(2)s3-|-0-7--0-6--0-3s2-0----2-3-2-3--||


   Outro
    E5                                F#G5
   4/4
        PM    PM    PM      PM
    E E E  E  E  E  E  E    E  E  E E E E E E
||------------------------|-------------------|
||o--------5-----5-----5--|----5--------------|
||---------4-----4-----4--|----4--------------|
||---------2-----2-----2--|----2--------------|
||o-2-2---(2)-2-(2)-2-(2)-|-2-(2)-2-2-4s5-5-5-|
||--0-0-0-----0-----0-----|-0-----0-0-2s3-3-3-|


  E5                                G5Bb5
      PM    PM    PM      PM
  E E E  E  E  E  E  E    E  E  E E E E E E
|-----------------------|--------------------|
|--------5-----5-----5--|----5---------------|
|--------4-----4-----4--|----4---------------|
|--------2-----2-----2--|----2---------------|
|-2-2---(2)-2-(2)-2-(2)-|-2-(2)-2-2-5s8-8-8--|
|-0-0-0-----0-----0-----|-0-----0-0-3s6-6-6--|


  E5                                F#G5
      PM    PM    PM      PM
  E E E  E  E  E  E  E    E  E  E E E E E E
|-----------------------|-------------------|
|--------5-----5-----5--|----5--------------|
|--------4-----4-----4--|----4--------------|
|--------2-----2-----2--|----2--------------|
|-2-2---(2)-2-(2)-2-(2)-|-2-(2)-2-2-4s5-5-5-|
|-0-0-0-----0-----0-----|-0-----0-0-2s3-3-3-|


  E5                N.C.                F5
      PM    PM    PM       ~
  E E E  E  E  E  E  E   E E +E   E E E E E  3x
|----------------------|-----------------------||
|--------5-----5-------|--------------------o--||
|--------4-----4-------|-----------------------||
|--------2-----2-------|-----------------------||
|-2-2---(2)-2-(2)-2----|-5----------2---3-3-o--||
|-0-0-0-----0-----0-/7-|---7-(7)-3---3-1-1-----||


  E5                                F#G5
      PM    PM    PM      PM
  E E E  E  E  E  E  E    E  E  E E E E E E
|-----------------------|-------------------|
|--------5-----5-----5--|----5--------------|
|--------4-----4-----4--|----4--------------|
|--------2-----2-----2--|----2--------------|
|-2-2---(2)-2-(2)-2-(2)-|-2-(2)-2-2-4s5-5-5-|
|-0-0-0-----0-----0-----|-0-----0-0-2s3-3-3-|


  E5                                G5Bb5
      PM    PM    PM      PM
  E E E  E  E  E  E  E    E  E  E E E E E E
|-----------------------|-------------------|
|--------5-----5-----5--|----5--------------|
|--------4-----4-----4--|----4--------------|
|--------2-----2-----2--|----2--------------|
|-2-2---(2)-2-(2)-2-(2)-|-2-(2)-2-2-5s8-8-8-|
|-0-0-0-----0-----0-----|-0-----0-0-3s6-6-6-|


  E5                                F#G5
      PM    PM    PM      PM
  E E E  E  E  E  E  E    E  E  E E E E E E
|-----------------------|-------------------|
|--------5-----5-----5--|----5--------------|
|--------4-----4-----4--|----4--------------|
|--------2-----2-----2--|----2--------------|
|-2-2---(2)-2-(2)-2-(2)-|-2-(2)-2-2-4s5-5-5-|
|-0-0-0-----0-----0-----|-0-----0-0-2s3-3-3-|


  E5                N.C.
      PM    PM    PM       ~             ~~~~~~~~~~
  E E E  E  E  E  E  E   E E +E   E E E  Q     +Q   +Q    H
|----------------------|---------------------|-------------------||
|--------5-----5-------|---------------------|-------------------||
|--------4-----4-------|---------------------|-------------------||
|--------2-----2-------|---------------------|-------------------||
|-2-2---(2)-2-(2)-2----|-5----------2---[8]--|-(8)--(8)----------||
|-0-0-0-----0-----0-/7-|---7-(7)-3---3------|--------------------||


--------------------------------------------------------------------------------


Duration Legend
---------------
W - whole; H - half; Q - quarter; E - 8th; S - 16th; T - 32nd; X - 64th; a - acciaccatura
+ - note tied to previous; . - note dotted; .. - note double dotted
Uncapitalized letters represent notes that are staccato (1/2 duration)
Irregular groupings are notated above the duration line
Duration letters will always appear directly above the note/fret number it represents the
duration for.  Duration letters with no fret number below them represent rests.  Multi-
bar rests are notated in the form Wxn, where n is the number of bars to rest for.  Low
melody durations appear below the staff

Tablature Legend
----------------
 h   - hammer-on
 p   - pull-off
 b   - bend
 pb  - pre-bend
 r   - bend release (if no number after the r, then release immediately)
 /  - slide into or out of (from/to "nowhere")
 s   - legato slide
 S   - shift slide
 - natural harmonic
[n]  - artificial harmonic
n(n) - tapped harmonic
 ~   - vibrato
 tr  - trill
 T   - tap
 TP  - trem. picking
 PM  - palm muting
n/  - tremolo bar dip; n = amount to dip
 n  - tremolo bar down
 n/  - tremolo bar up
/n  - tremolo bar inverted dip
 =   - hold bend; also acts as connecting device for hammers/pulls
 <> - volume swell (louder/softer)
 x   - on rhythm slash represents muted slash
 o   - on rhythm slash represents single note slash

Misc Legend
-----------
 |  - bar
||  - double bar
||o - repeat start
o|| - repeat end
*|  - double bar (ending)
 :  - bar (freetime)
 $  - Segno
 &  - Coda
Tempo markers -  = BPM(8/16=s8/s16), where s8 = swing 8ths, s16 = swing 16ths
Suggest correction
Creating personal tab
Creating personal tab
You can edit any tab online and save it as your Personal.

You can edit, replace or remove any tab part or add personal notes – all changes will be seen only by you.

Personal tabs can be accessed anytime from any device, even offline.
Learn more »
comments
print report bad tab
3 comments total.
+1 reply
dann_blood 268 Jan 09, 2007 01:34 AM

Nice tab, but doesnt Petrucci use a seven string?

+1 reply
marcelocrispim 140 Jun 17, 2007 11:00 AM

nice tab ;)
5*

+1 reply
that_1_dude24 10 Aug 24, 2007 11:03 AM

@dann blood
He uses both.

guest
You may want to rate the tab now too:
select rating
Wanna post a correction for this tab? Suggest correction