Oops, an error
Loading. Please wait.

I Walk Beside You bass

version 2
version 2

Whole song

1,510 views 3 this week
2 commentsread comments
1 2 3 4 5
1 last vote to show rating
add to favorites
×
Save as Personal and add changes to this tab that will be seen only by you. Learn more ›
×
You can save this tab as Personal to edit and correct it or add notes. All changes will be seen only by you. Learn more »
launch autoscroll
font size
0
reset
guitar tuner
backing track
0:00
0:00
edit
Autoscroll
slow
fast
+/-
esc
set tempo
stop
First off this is in a wierd tuning. BEAD
For those of you with a four string here it is!
  (9/8        7/8        9/8      7/8
D|----------|--------|----------|--------| Intro & Verse
A|-222222222|-4444557|-222222222|--------|
E|----------|--------|----------|-2222335|
B|----------|--------|----------|--------|

Bridge 4/4
D---------|---------|---------|---------|---------|---------|
A---------|---------|-22222222|-22222222|---------|---------|
E-33333333|-00000000|---------|---------|-33333333|-22222222|
B---------|---------|---------|---------|---------|---------|

D---------|--------|
A-00000000|00000000|
E---------|--------|
B---------|--------|

Chorus 4/4
D---------|---------|---------|---------|---------|---------|
A-55555555|-55555555|---------|---------|-22222222|-22222222|
E---------|---------|-55555555|-55555555|---------|---------|
B---------|---------|---------|---------|---------|---------|

D---------|---------|---------|---------|---------|---------|
A---------|---------|---------|---------|-11111111|-11111111|
E-33333333|-33333333|---------|---------|---------|---------|
B---------|---------|-33333333|-33333333|---------|---------|

D---------|---------|---------|---------|
A-22222222|-22222222|---------|---------|
E---------|---------|-33333333|-33333333|
B---------|---------|---------|---------|

Break 4/4
D|----------7----|---------7---7--|----------5----|---------5---5---|
A|---------------|----------------|---------------|-----------------|
E|-5----5-5------|-5-5---5---5----|-3----3-3------|-3-3-3-3---3-----|
B|---------------|----------------|---------------|-----------------|


  

D|----------4----|---------4---4--|---------------|----------------|
A|---------------|----------------|----------5----|---------5---5--|
E|-2----2-2------|-2-2---2---2----|---------------|----------------|
B|---------------|----------------|-3----3-3------|-3-3-3-3---3----|


 

D|----------7----|---------7---7--|----------5----|---------5---5--|
A|---------------|----------------|---------------|----------------|
E|-5----5-5------|-5-5---5---5----|-3----3-3------|-3-3-3-3---3----|
B|---------------|----------------|---------------|----------------|




D|----------4----|---------4---4--|----------|-----------|
A|---------------|----------------|----------|-----------|
E|-2----2-2------|-2-2---2---2----|-1--------|-0---------|
B|---------------|----------------|----------|------3----|




D|---------|---------|---------|---------|
A|---------|---------|---------|---------|
E|-33333333|-33333333|-33333333|-33333333|
B|---------|---------|---------|---------|


Chorus II 4/4
D---------|---------|---------|---------|---------|---------|
A-77777777|-77777777|---------|---------|-44444444|-44444444|
E---------|---------|-77777777|-77777777|---------|---------|
B---------|---------|---------|---------|---------|---------|

D---------|---------|---------|---------|---------|---------|
A---------|---------|-77777777|-77777777|-33333333|-33333333|
E-55555555|-55555555|---------|---------|---------|---------|
B---------|---------|---------|---------|---------|---------|

D---------|---------|---------|---------|
A-44444444|-44444444|---------|---------|
E---------|---------|-55555555|-55555555|
B---------|---------|---------|---------|

Outro 9/8     7/8      9/8        7/8
D----------|--------|----------|--------|
A-444444444|-6666779|-444444444|--------|
E----------|--------|----------|-4444557|
B----------|--------|----------|--------|

      9/8     7/8      9/8        7/8
D----------|--------|----------|--------|
A-444444444|-6666779|-444444444|--------|
E----------|--------|----------|-4444557|
B----------|--------|----------|--------|

4/4
D----|
A-4--|
E----|
B----|

The order isent that hard to figure out.

Enjoy! ^_^

            
            
Suggest correction
Creating personal tab
Creating personal tab
You can edit any tab online and save it as your Personal.

You can edit, replace or remove any tab part or add personal notes – all changes will be seen only by you.

Personal tabs can be accessed anytime from any device, even offline.
Learn more »
Give kudos to tab author, rate the tab!
1 2 3 4 5
comments
print report bad tab
2 comments total.
+1 reply
Satan Man 1,286 Feb 03, 2008 08:34 AM

First off, BEAD isnt a wierd tuning
It's standard 5 string without G

0 reply
SoftParade1967 512 Feb 24, 2008 12:57 PM

i know. Its weird to tune too. Very low and can mess up your bass strings if you keep them downtuned for too long. Obviously. Just giving everyone a heads up about that. thats all.

guest
You may want to rate the tab now too:
select rating
Wanna post a correction for this tab? Suggest correction