Oops, an error
Loading. Please wait.

In The Name Of God bass

version 2
version 2

Whole song

1,539 views 6 this week
5 commentsread comments
1 2 3 4 5
x 6
add to favorites
×
Save as Personal and add changes to this tab that will be seen only by you. Learn more ›
×
You can save this tab as Personal to edit and correct it or add notes. All changes will be seen only by you. Learn more »
launch autoscroll
font size
0
reset
guitar tuner
backing track
0:00
0:00
edit
Autoscroll
slow
fast
+/-
esc
set tempo
stop
Author
Difficulty
Band  :  Dream Theater
Song  :  In The Name Of God
Album :  Train of Thought
Notes : hi, this is Rafael a.k.a. little Petrucci. It’s my first tab, hope you like it.
John Myung played this song with his signature 6 string bass, but I figured it using my
5 string  bass. The tuning is (C E A D G C) standart tuning for 6 strings except for the
lowest string, which is tuned up 1 fret to the C note. I found the 4 string tab and I
read a comment that wants the 6 string version, so I made this thing up. It sounds
perfect for me, and hopefully this thing will help you out. for questions, comments or
anything else, email me at : vandersarisgreat@yahoo.com , I also have the 5 string 
version of this tab. If you want it, just e-mail me.
Intro (0:30)

C|----------------|---------------------|----------------|--------------------|
G|----------------|---------------------|----------------|-------0-1-3--1-0---|
D|----------------|-------2-3-5--3-2----|----------------|--------------------|
A|--3----/4-3-1-4-|3-----------------4--|--3----/4-3-1-4-|3-------------------|
E|----------------|---------------------|----------------|--------------------|
C|0----0----------|--0--0---------------|0----0----------|--0--0------------0-|

C|-----------------|---------------------|----------------|4-5-7--5-4----------------------|
G|-----------------|---------------------|----------------|-------------6-5----3-1-0-------|
D|-----------------|-------2-3-5--3-2----|----------------|--------------------------3-2---|
A|3----1-3-4-3-1-4-|3-----------------4--|--3----/4-3-1-4-|------------------------------4-|
E|-----------------|---------------------|----------------|--------------------------------|
C|---0-------------|--0--0---------------|0----0----------|--------------------------------|

C|----------------|---------------------|----------------|--------------------|
G|----------------|---------------------|----------------|-------0-1-3--1-0---|
D|----------------|-------2-3-5--3-2----|----------------|--------------------|
A|--3----/4-3-1-4-|3-----------------4--|--3----/4-3-1-4-|3-------------------|
E|----------------|---------------------|----------------|--------------------|
C|0----0----------|--0--0---------------|0----0----------|--0--0------------0-|

C|-----------------|---------------------|----------------|4-5-7--5-4----------------------|
G|-----------------|---------------------|----------------|-----------6--5h6p5-3-1-0-------|
D|-----------------|-------2-3-5--3-2----|----------------|--------------------------------|
A|3----1-3-4-3-1-4-|3-----------------4--|--3----/4-3-1-4-|--------------------------4-3-4-|
E|-----------------|---------------------|----------------|--------------------------------|
C|---0-------------|--0--0---------------|0----0----------|--------------------------------|

(1:06)

C|-----------------------|------------------|-----------------------|------------------------|
G|-----------------------|------------------|-----------------------|------------------------|
D|-----------------------|------------------|-----------------------|------------------------|
A|-----------------------|------------------|-----------------------|------------------------|
E|-----------------------|----------6-6-4-4-|-----------------------|------------------------|
C|0-0----0-3-2-1--3-2-1--|0-0----0----------|0-0----0-3-2-1--3-2-1--|0-0-8-7-6-6-10-10-11-11-|

C|------------------------|------------------|-----------------------|------------------------|
G|------------------------|------------------|-----------------------|------------------------|
D|------------------------|------------------|-----------------------|------------------------|
A|------------------------|------------------|-----------------------|------------------------|
E|------------------------|----------6-6-4-4-|-----------------------|------------------------|
C|12-0----0-3-2-1--3-2-1--|0-0----0----------|0-0----0-3-2-1--3-2-1--|0-0-8-7-6-6-10-10-11-11-|


Verse (1:24)

C|-----------------------|------------------|-----------------------|-----------------------|
G|-----------------------|------------------|-----------------------|-----------------------|
D|-----------------------|------------------|-----------------------|-----------------------|
A|-----------------------|------------------|-----------------------|-----------------------|
E|-----------------------|----------6-6-4-4-|-----------------------|-----------------------|
C|0-0----0-3-2-1--3-2-1--|0-0----0----------|0-0----0-3-2-1--3-2-1--|0-0-8-7-6--10-10-11-11-|

C|------------------------|------------------|-----------------------|-----------------------|
G|------------------------|------------------|-----------------------|-----------------------|
D|------------------------|------------------|-----------------------|-----------------------|
A|------------------------|------------------|-----------------------|-----------------------|
E|------------------------|----------6-6-4-4-|-----------------------|-----------------------|
C|12-0----0-3-2-1--3-2-1--|0-0----0----------|0-0----0-3-2-1--3-2-1--|0-0-8-7-6--10-10-11-11-|


Bridge (1:42)

C|----------------|---------------------|----------------|--------------------|
G|----------------|---------------------|----------------|-------0-1-3--1-0---|
D|----------------|-------2-3-5--3-2----|----------------|--------------------|
A|--3----/4-3-1-4-|3-----------------4--|--3----/4-3-1-4-|3-------------------|
E|----------------|---------------------|----------------|--------------------|
C|0----0----------|--0--0---------------|0----0----------|--0--0------------0-|

C|------------------|---------------------|----------------|4-5-7--5-4----------------------|
G|------------------|---------------------|----------------|-----------6--5h6p5-3-1-0-------|
D|------------------|-------2-3-5--3-2----|----------------|--------------------------------|
A|3-3---1-3-4-3-1-4-|3-----------------4--|--3----/4-3-1-4-|--------------------------4-3-4-|
E|------------------|---------------------|----------------|--------------------------------|
C|----0-------------|--0--0---------------|0----0----------|--------------------------------|

Verse (2:00)

C|-----------------------|------------------|-----------------------|-----------------------|
G|-----------------------|------------------|-----------------------|-----------------------|
D|-----------------------|------------------|-----------------------|-----------------------|
A|-----------------------|------------------|-----------------------|-----------------------|
E|-----------------------|----------6-6-4-4-|-----------------------|-----------------------|
C|0-0----0-3-2-1--3-2-1--|0-0----0----------|0-0----0-3-2-1--3-2-1--|0-0-8-7-6--10-10-11-11-|

C|------------------------|------------------|-----------------------|------------------------|
G|------------------------|------------------|-----------------------|------------------------|
D|------------------------|------------------|-----------------------|------------------------|
A|------------------------|------------------|-----------------------|------------------------|
E|------------------------|----------6-6-4-4-|-----------------------|------------------------|
C|12-0----0-3-2-1--3-2-1--|0-0----0----------|0-0----0-3-2-1--3-2-1--|0-0-8-7-6--10-10-11-11--|


Bridge (2:18)

C|----------|----------|----------|----------|----------|----------|-------------|
G|----------|----------|----------|----------|----------|----------|-------------|
D|----------|----------|----------|----------|----------|----------|-------------|
A|----------|----------|----------|----------|----------|----------|-------------|
E|----------|----------|3~--------|4~--------|----------|----------|-------------|
C|5~--------|(5)-------|----------|----------|1~--------|(1)-------|3~---8-7--8--|


Chorus (2:35)

C|---------------|---------------|---------------|-------------------|
G|---------------|---------------|---------------|-------------------|
D|---------------|---------------|---------------|-------------------|
A|---------------|---------------|---------------|-------------------|
E|---------------|4--4--4-4--4-4-|---------------|-------------------|
C|5--5--5-5--5-5-|---------------|1--1--1-1--1-1-|/10--10--10-10-8-7-|

C|---------------|---------------|---------------|------------------|
G|---------------|---------------|---------------|------------------| x2
D|---------------|---------------|---------------|--------/5--5-5-5-|
A|---------------|---------------|---------------|------------------|
E|---------------|4--4--4-4--4-4-|---------------|------------------|
C|5--5--5-5--5-5-|---------------|1--1--1-1--1-1-|3--3—3------------|


Bridge (3:04)

C|----------------|--------------------|----------------|--------------------|
G|----------------|--------5---4-----3-|----------------|--------6---5-----4-| x2
D|6-3-3-3-6-3-3-3-|6-3-3-3---6---6-6---|6-3-3-3-6-3-3-3-|6-3-3-3---6---6-5---|
A|----------------|--------------------|----------------|--------------------|
E|----------------|--------------------|----------------|--------------------|
C|----------------|--------------------|----------------|--------------------|


Verse (3:19)

C|----------------------|-----------------------|--------------------|-----------------------|


G|----------------------|-----------------------|--------------------|-----------------------| x2
D|----------------------|-----------------------|--------------------|-----------------------|
A|----------------------|-----------3---2-----1-|--------------------|-----------4---3-----2-|
E|4-1-1-1--4-1-1-1-1--1-|4-1-1-1--1---4---4-4---|4-1-1-1--1-4-1-1--1-|4-1-1-1--1---4---4-3---|
C|----------------------|-----------------------|--------------------|-----------------------|

C|----------------------|-----------------------|    |----------------------|-----------------------|
G|----------------------|-----------------------| x3 |----------------------|-----------------------|
D|----------------------|-----------------------|    |----------------------|-----------------------|
A|----------------------|---------------------1-|    |----------------------|---------------3-1-----|
E|----------------------|-----------------2-3---|    |----------------------|-------------------3-2-|
C|3-0-0-0--0-3-0-0-0--0-|3-0-0-0--0-3-0-3-------|    |3-0-0-0--0-3-0-0-0--0-|3-0-0-0--0-3-0---------|

C|----------------------|-----------------------|----------------------|-----------------------|
G|----------------------|-----------------------|----------------------|-----------------------|
D|----------------------|-----------------------|----------------------|-----------------------|
A|----------------------|-----------------------|----------------------|---------------5-3-----|
E|----------------------|---------------4-3---3-|----------------------|-------------------4-3-|
C|5-2-2-2--2-5-2-2-2--2-|5-2-2-2--2-5-2-----5---|5-2-2-2--2-5-2-2-2--2-|5-2-2-2--2-5-2---------|

C|----------------------|-----------------------|----------------------|-----------------------|
G|----------------------|-----------------------|----------------------|-----------------------|
D|----------------------|-----------------------|----------------------|-----------------------|
A|----------------------|-----------------------|----------------------|---------------5-3-----|
E|----------------------|---------------4-3-4-3-|----------------------|-------------------4-3-|
C|5-2-2-2--2-5-2-2-2--2-|5-2-2-2--2-5-2---------|5-2-2-2--2-5-2-2-2--2-|5-2-2-2--2-5-2---------|


Chorus (4:03)

C|---------------|---------------|---------------|-------------------|
G|---------------|---------------|---------------|-------------------|
D|---------------|---------------|---------------|-------------------|
A|---------------|---------------|---------------|-------------------|
E|---------------|4--4--4-4--4-4-|---------------|-------------------|
C|5--5--5-5--5-5-|---------------|1--1--1-1--1-1-|/10--10--10-10-8-7-|

C|---------------|---------------|---------------|------------------|
G|---------------|---------------|---------------|------------------| x2
D|---------------|---------------|---------------|--------/5--5-5-5-|
A|---------------|---------------|---------------|------------------|
E|---------------|4--4--4-4--4-4-|---------------|------------------|
C|5--5--5-5--5-5-|---------------|1--1--1-1--1-1-|3--3--3-----------|


Verse (4:33)

C|--------------------|-------------------|--------------------|-----------------|
G|--------------------|-------------------|--------------------|-----------------|
D|--------------------|-------------------|--------------------|-----------------|
A|3--3--3-3-3--3--1-3-|4--4--4-4-1-----4--|3--3--3-3-3--3--1-3-|4--4--4-1--------|
E|--------------------|-------------4-----|--------------------|-----------4--3--|
C|--------------------|-------------------|--------------------|-----------------|

C|------------------|------------------|---------------------|--------------|
G|------------------|------------------|---------------------|--------------|
D|------------------|------------------|---------------3-----|--------------|
A|------------------|------------------|-----------------4-1-|--------------|
E|------------------|------------------|---------------------|3~---3-1-0~---|
C|5--5-5--5-5--5-5--|4--4-4--4-4--4-4--|2--2-2--2-2--2-------|--------------|


Chorus (5:02)

C|---------------|---------------|---------------|-------------------|
G|---------------|---------------|---------------|-------------------|
D|---------------|---------------|---------------|-------------------|
A|---------------|---------------|---------------|-------------------|
E|---------------|4--4--4-4--4-4-|---------------|-------------------|
C|5--5--5-5--5-5-|---------------|1--1--1-1--1-1-|/10--10--10-10-8-7-|

|---------------|---------------|
|---------------|---------------|
|---------------|---------------|
|---------------|---------------|
|---------------|4--4--4-4--4-4-|
|5--5--5-5--5-5-|---------------|


C|---------------|------------------|---------------|---------------|
G|---------------|------------------|---------------|---------------|
D|---------------|--------/5--5-5-5-|---------------|---------------|
A|---------------|------------------|---------------|---------------|
E|---------------|------------------|---------------|4--4--4-4--4-4-|
C|1--1--1-1--1-1-|3--3--3-----------|5--5--5-5--5-5-|---------------|

|---------------|-------------------|
|---------------|-------------------|
|---------------|-------------------|
|---------------|-------------------|
|---------------|-------------------|
|1--1--1-1--1-1--|/10--10--10-10-8-7|


C|---------------|---------------|---------------|-------------|
G|---------------|---------------|---------------|-------------|
D|---------------|---------------|---------------|-------------|
A|---------------|---------------|---------------|-------------|
E|---------------|4--4--4-4--4-4-|---------------|-------------|
C|5--5--5-5--5-5-|---------------|1--1--1-1--1-1-|3~-----------|


Interlude (5:34)

C|----------------|----------------|----------------|-------------|
G|----------------|----------------|----------------|-------------| x8
D|----------------|----------------|----------------|-------------|
A|--3----/4-3-1-4-|3------/4-3-1-4-|3------/4-3-1-4-|3------1--1--|
E|----------------|----------------|------------------------------|
C|0----0----------|--0--0----------|--0--0----------|--0--0-------|

C|----------------|------------|----------------|-------------|
G|----------------|------------|----------------|-------------| x2
D|----------------|------------|----------------|-------------|
A|--3----/4-3-1-4-|3-----------|--3----/4-3-1-4-|3------1--1--|
E|----------------|------------|----------------|-------------|
C|0----0----------|--0--0-0----|0----0----------|--0--0-------|

C|----------------|----------------|----------------|-------------|
G|----------------|----------------|----------------|-------------| x2
D|----------------|----------------|----------------|-------------|
A|--3----/4-3-1-4-|3------/4-3-1-4-|3------/4-3-1-4-|3------1--1--|
E|----------------|----------------|------------------------------|
C|0----0----------|--0--0----------|--0--0----------|--0--0-------|

C|----------------|----------------|----------------|---------------------|
G|----------------|----------------|----------------|--------------0-1-3--| x2
D|----------------|----------------|----------------|-------2-3-2---------|
A|--3----/4-3-1-4-|3------/4-3-1-4-|3------/4-3-1-4-|3--------------------|
E|----------------|----------------|----------------|---------------------|
C|0----0----------|--0--0----------|--0--0----------|--0--0---------------|


Solo Part (7:35)

C|----------------|----------------|----------------|-------------|
G|----------------|----------------|----------------|-------------| x2
D|----------------|----------------|----------------|-------------|
A|--3----/4-3-1-4-|3------/4-3-1-4-|3------/4-3-1-4-|3------1--1--|
E|----------------|----------------|----------------|-------------|
C|0----0----------|--0--0----------|--0--0----------|--0--0-------|

C|--------------------------|-----------------------------|
G|----------------------1-0-|-3---5-3-6-3-5-3-1-0-3-1-0---|
D|-------------3-2--3-2-----|---6-----------------------3-|
A|3-1-4-3--4-1--------------|-----------------------------|
E|--------------------------|-----------------------------|
C|--------------------------|-----------------------------|

C|--------------------------|----------------------------------------------|
G|--------------------------|-------------13-12-10-9-----------------------|
D|-------------3-2--3-2-6-5/|8----10-8-10------------11-10-8----------8-10-|
A|3-1-4-3--4-1--------------|--11----------------------------11-10-11------|
E|--------------------------|----------------------------------------------|
C|--------------------------|----------------------------------------------|

C|--------------------------|-----------------------------|
G|----------------------1-0-|-3---5-3-6-3-5-3-1-0-3-1-0---|
D|-------------3-2--3-2-----|---6-----------------------3-|
A|3-1-4-3--3-1--------------|-----------------------------|
E|--------------------------|-----------------------------|
C|--------------------------|-----------------------------|

C|--------------------------|---------------------------|
G|--------------------------|-----------------9-10-13-15|
D|-------------3-2--3-2-6-5-|-8----10-8-11-10-----------|
A|3-1-4-3--4-1--------------|---11----------------------|
E|--------------------------|---------------------------|
C|--------------------------|---------------------------|

(8:08)
C|------------|---------|-------------|-----------|
G|------------|---------|-------------|-----------|
D|------------|---------|-------------|-----------|
A|------------|---------|-------------|-----------|
E|------------|---------|-------------|-----------|
C|0---0---0---|---0--0--|0--0--0--0---|--7---12---|

C|-----------------------------|--------------------|
G|12-13-12-10-9-6-9-10-9-6-5-3-|5-6-5---------------|
D|-----------------------------|--------------------|
A|-----------------------------|-----1-1~------/4-4~|
E|-----------------------------|----------3-3~------|
C|-----------------------------|--------------------|

C|-----------------------------|------------------------|
G|12-13-13-10-9-6-9-10-9-6-5-3-|5-6-5-------------------|
D|-----------------------------|------------------------|
A|-----------------------------|------4-4~--1-1~--/7-7~-|
E|-----------------------------|------------------------|
C|-----------------------------|------------------------|

C|--------------------|-------------|-----------|-----------|-------------|-------------|
G|--------------------|-------------|-----------|-----------|-------------|-----5-5-5-5-|
D|--------------------|-------------|-----------|-----------|-------------|-------------|
A|4~------------------|-------------|-----------|-----------|-------------|-------------|
E|--------------------|-------------|-----------|-----------|-------------|-------------|
C|---10~--7~--1~--0~--|0----0-0-0---|------0----|0--0----0--|--0-0-0------|-0-----------|

C|------------------|------------------|---------------------|
G|------------------|----0-------1-0---|0-1-3-0h1p0----------|
D|3---2-------2-----|------2-3-2-----3-|------------3-2------|
A|--4---4-3-4---4-3-|1-3---------------|---------------------|
E|------------------|------------------|---------------------|
C|------------------|------------------|----------------0~---|


Guitar Solo (8:36)

C|----------|----------|----------|-----------|
G|---5---5--|---6---6--|---5---5--|---6-3-----| x4
D|-----5----|-----5----|-----5----|-------5---|
A|3---------|3---------|3---------|3--------4-|
E|----------|----------|----------|-----------|
C|----------|----------|----------|-----------|

C|-----------|-----------|-----------|------------|
G|----5---5--|----6---6--|----5---5--|----6-3-----|
D|--5---5----|--5---5----|--5---5----|--5-----5---|
A|3----------|3----------|3----------|3---------4-|
E|-----------|-----------|------------------------|
C|-----------|-----------|-----------|------------|

C|-------------------|-------------------|-------------------|----------------|
G|-------------------|-------------------|-------------------|----------------|
D|-------------------|-------------------|-------------------|----------------|
A|1--1-1-1--1-1-1-1--|1--1-1-1--1-1-1-1--|1--1-1-1--1-1-1-1--|1--1-1-1--1-1-1-|
E|-------------------|-------------------|-------------------|----------------|
C|-------------------|-------------------|-------------------|----------------|

C|---------------------|----------------------|----------------------|----------------------|


G|----5-5--5--5--5---5-|----6-6--6--6--6---6--|----5-5--5--5--5---5--|----6-6--6--6-3-------| x2
D|--5--------------5---|--5--------------5----|--5--------------5----|--5--------------5----|
A|3--------------------|3---------------------|3---------------------|3-------------------4-|
E|---------------------|----------------------|----------------------|----------------------|
C|---------------------|----------------------|----------------------|----------------------|

(9:38)

C|-----------|-----------|-----------|------------|
G|----5---5--|----6---6--|----5---5--|----6-3-----| x2
D|--5---5----|--5---5----|--5---5----|--5-----5---|
A|3----------|3----------|3----------|3---------4-|
E|-----------|-----------|-----------|------------|
C|-----------|-----------|-----------|------------|

C|-------------------|-------------------|-------------------|----------------|----------|
G|-------------------|-------------------|-------------------|----------------|----------|
D|-------------------|-------------------|-------------------|----------------|----------|
A|1--1-1-1--1-1-1-1--|1--1-1-1--1-1-1-1--|-------------------|----------------|----------|
E|-------------------|-------------------|3--3-3-3--3-3-3-3--|----------------|----------|
C|-------------------|-------------------|-------------------|1--1-1-1--1-1-1-|0~--------|

(10:03)

C|----------|----------|
G|----------|----------|
D|----------|----------|
A|----------|----------|
E|----------|----------|
C|0-0-------|0-0-------|

C|-----------------------|-------------------|-----------------------|-----------------------|
G|-----------------------|-------------------|-----------------------|-----------------------|
D|-----------------------|-------------------|-----------------------|-----------------------|
A|-----------------------|-------------------|-----------------------|-----------------------|
E|-----------------------|-------------------|-----------------------|-----------------------|
C|0-0----0-3-2-1--3-2-1--|0-0----0-10-10-8-8-|0-0----0-3-2-1--3-2-1--|0-0-8-7-6--10-10-11-11-|

C|--------------------------|-------------------|-----------------------|-----------------------|
G|--------------------------|-------------------|-----------------------|-----------------------|
D|--------------------------|-------------------|-----------------------|-----------------------|
A|--------------------------|-------------------|-----------------------|-----------------------|
E|--------------------------|-------------------|-----------------------|-----------------------|
C|--12-0----0-3-2-1--3-2-1--|0-0----0-10-10-8-8-|0-0----0-3-2-1--3-2-1--|0-0-8-7-6--10-10-11-11-|


Bridge (10:24)

C|----------|----------|----------|----------|----------|----------|----------|----------|
G|----------|----------|----------|----------|----------|----------|----------|----------|
D|----------|----------|----------|----------|----------|----------|----------|----------|
A|----------|----------|----------|----------|----------|----------|----------|----------|
E|----------|----------|3~--------|4~--------|----------|----------|----------|----------|
C|5~--------|(5)-------|----------|----------|1~--------|(1)-------|3~--------|(3)-------|

C|----------|----------|----------|----------|----------|-------------|----------------|
G|----------|----------|----------|----------|----------|-------------|----------------|
D|----------|----------|----------|----------|----------|-------3-----|----------------|
A|----------|----------|----------|----------|----------|---------4-1-|----------------|
E|----------|----------|----------|----------|----------|-------------|3~----3-1-0~----|
C|5~--------|(5)-------|3~--------|(3)-------|1~--------|(1)----------|----------------|


Chorus (11:00)

C|---------------|---------------|---------------|-------------------|
G|---------------|---------------|---------------|-------------------|
D|---------------|---------------|---------------|-------------------|
A|---------------|---------------|---------------|-------------------|
E|---------------|4--4--4-4--4-4-|---------------|-------------------|
C|5--5--5-5--5-5-|---------------|1--1--1-1--1-1-|/10--10--10-10-8-7-|

C|---------------|---------------|---------------|------------------|
G|---------------|---------------|---------------|------------------| x2
D|---------------|---------------|---------------|--------/5--5-5-5-|
A|---------------|---------------|---------------|------------------|
E|---------------|4--4--4-4--4-4-|---------------|------------------|
C|5--5--5-5--5-5-|---------------|1--1--1-1--1-1-|3--3--3-----------|


Outro (11:29)

C|--------------------|------------------|----------------------|--------------------|
G|--------------------|------------------|----------------------|--------------------|
D|-----1h3--3-3--3-3--|----/6--6-6--6-6--|--------------------8-|--------------------|
A|--------------------|------------------|----2h4--4-4--4-4-/---|--------------------|
E|1--1----------------|4-----------------|----------------------|6--6-6--6-----------|
C|--------------------|------------------|1---------------------|----------3--3-3--3-|

C|--------------------|------------------|--------------------|--------------------|
G|--------------------|------------------|--------------------|--------------------|
D|-----1h3--3-3--3-3--|----/6-6h8-6-6--6-|--------------------|--------------------|
A|--------------------|------------------|-----4--------------|--------------------|
E|1--1----------------|4-----------------|--------------------|6--6-6--6-----------|
C|--------------------|------------------|1--1----1-1--1-1--1-|----------3--3-3--3-|

C|--------------------|------------------|--------------------|--------------------|
G|--------------------|------------------|--------------------|--------------------|
D|-----1h3--3-3--3-3--|----/6--6-6--6-6--|--------------------|--------------------|
A|--------------------|------------------|----2h4--4-4--4-4---|--------------------|
E|1--1----------------|4-----------------|--------------------|6--6-6--6-----------|
C|--------------------|------------------|1-------------------|----------3--3-3--3-|

C|--------------------|------------------|--------------------|--------------------|
G|--------------------|------------------|--------------------|--------------------|
D|-----1h3--3-3--3-3--|----/6-6h8-6-6--6-|--------------------|--------------------|
A|--------------------|------------------|-----4--------------|--------------------|
E|1--1----------------|4-----------------|--------------------|6--6-6--6-----------|
C|--------------------|------------------|1--1----1-1--1-1--1-|----------3--3-3--3-|

(12:28)

C|----------------------|----------------------------------|
G|----------------------|-----------------------5----------|
D|-------3-----3-3-3--3-|---------6---------------8-6--6---|
A|----------------------|--------------------------------6-|
E|1--1-1----1-----------|4--4-4-4----4-4--4-4-4------------|
C|----------------------|----------------------------------|

C|-----------------------------|------------------------|
G|-----------------------------|------------------------|
D|-----------------------------|------------------------|
A|4--4-4-4-4-------------4-4-4-|-----8------------------|
E|-----------------------------|6-6-6-6---6-------------|
C|------------1-1--1-1-1-------|------------3-3-3-3-3-3-|

C|----------------------------|-------------------------------|
G|----------------------------|-------------------------------|
D|---------3--3---------------|------------/6-----------------|
A|----------------------------|-------------------------------|
E|1--1-1-1------1--1-1-1--1-1-|4-4-4-4-4-4-----4-4-4-4-4-4-4--|
C|----------------------------|-------------------------------|

C|----------------------------|-------------|
G|----------------------------|-------------|
D|----------------------------|-------------|
A|4--4-4-4--4-4-4--4-4-4--4-4-|-------------|
E|----------------------------|-------------|
C|----------------------------|10~----3~----|

(12:58)

C|--------------------------|---------------------------------|
G|--------------------------|-----------------------/5--------|
D|--------------------------|--------------------------8-6----|
A|--------------------------|-------------------------------6-|
E|--------------------------|4--4-4-4-4--4-4--4-4-4-----------|
C|5--5-5-5-5--5-5--5-5-5-5--|---------------------------------|

C|----------------------------------------|------------------|
G|------------8-8-6-6-5-5-----------------|------------------|
D|------------------------8-8-6-6-5-5-----|------------------|
A|4--4-4-4-4--------------------------8-8-|------------------|
E|----------------------------------------|6~---6~-----------|
C|----------------------------------------|--------3~---3--3-|

C|---------------------|---------------------------|
G|---------------------|------------------5--------|
D|-------3---------3---|-------6------------8-6----|
A|---------------------|-------------------------6-|
E|1--1-1-----1--1------|4--4-4-----4--4-4----------|
C|---------------------|---------------------------|

C|-------------------------------------|----------------------|
G|-------------------------------------|--5-6--8-10-13-15--8--|
D|---------------4-4-4--4-4-4-4-4--4-4-|----------------------|
A|-------------------------------------|----------------------|
E|-------------------------------------|----------------------|
C|1--1--1-1--1-1-----------------------|6---------------------|

C|-------------------------------|-----------------------------|
G|-------------------------------|--------------10-12-10-12-10-|
D|------3-3--3h6-3-----/6-/8-6-3-|-----6/8-6--6----------------|
A|-------------------------------|-----------------------------|
E|1--1-------------1-1-----------|4--4-------------------------|
C|-------------------------------|-----------------------------|

C|-----------------------------------|------------|
G|-----------------------------------|------------|
D|-----------------------------------|------------|
A|---1-------------------------------|------------|
E|-----4-3-------3-4-----------------|6~----------|
C|1--------5-3-5-----1-1-1-1-1-1-1-1-|------3~----|

C|------------------------|----------------------|
G|------------------------|----------------------| fade out
D|-----/3-3-3-3--5p3-3--3-|-----/6-6-6-6--6-6----|
A|------------------------|----------------------|
E|------------------------|4--4------------------|
C|5--5--------------------|----------------------|


There you go! Have fun learning. Dream Theater is the best (before portnoy left ,of course)!!
Suggest correction
Creating personal tab
Creating personal tab
You can edit any tab online and save it as your Personal.

You can edit, replace or remove any tab part or add personal notes – all changes will be seen only by you.

Personal tabs can be accessed anytime from any device, even offline.
Learn more »
comments
print report bad tab
5 comments total. Showing first comments.
0 reply
Rafael71 31 Aug 14, 2013 07:57 AM

why there isn't any feedbacks??
come on, i;m getting frustrated

0 reply
Rafael71 31 Sep 13, 2013 06:17 AM

whoever rate my tab i just wanna say thankyou so much

0 reply
KevinTheBassMan 10 Nov 05, 2013 05:06 PM

Could you please e-mail me your 5-string tab? kevinclarke9@hotmail.com

guest
You may want to rate the tab now too:
select rating
Wanna post a correction for this tab? Suggest correction