Oops, an error
Loading. Please wait.

In The Presence Of Enemies Part 1 bass

version 1
version 1

Whole song

Interactive

8,881 views 6 this week
1 commentread comment
1 2 3 4 5
x 5
add to favorites
×
Save as Personal and add changes to this tab that will be seen only by you. Learn more ›
×
You can save this tab as Personal to edit and correct it or add notes. All changes will be seen only by you. Learn more »
launch autoscroll
font size
0
reset
guitar tuner
backing track
0:00
0:00
edit
Autoscroll
slow
fast
+/-
esc
set tempo
stop
Author
Difficulty
Dream Theater: In The Presence Of Enemies - Part I

Transcribed by: Andrew Zara (disturbedfreak0520@yahoo.com)

Date last modified: June 8, 2007

PLEASE DO NOT COPY THIS TAB TO ANOTHER SITE
WITHOUT AUTHORS' PERMISSION. THANK YOU.

Tuning: B Standard (B,E,A,D,G)

 E   E   E   E   E      E   E  E   E   E     E  E  E  E  E  E  E   
G||--14------------------|--10------9----------|--7--------5-----------|
D||------15--17--14------|------12-----10------|-----7--5-----5--3--2--|
A||------------------17--|-----------------12--|-----------------------|
E||----------------------|---------------------|-----------------------|
B||----------------------|---------------------|-----------------------|


  E  E  E  E  E  E  E     Q    W.                  W.                
-----------------------|------------------------|-------------------|
-----------------------|------------------------|-------------------|
--5--------3-----------|------------------------|-------------------|
-----5--3-----3--1--0--|------------------------|-------------------|
-----------------------|-------3----------------|--L----------------|


  Q    W.                  W.                  Q    W.                
------------------------|-------------------|------------------------|
------------------------|-------------------|------------------------|
------------------------|-------------------|------------------------|
------------------------|-------------------|------------------------|
------------------------|-------------------|-------3----------------|


  Q    Q    W                   Q    W.                
-----------------------------|------------------------|
-----------------------------|------------------------|
-----------------------------|------------------------|
-----------------------------|------------------------|
--3--------------------------|-------3----------------|


  E  E  E  E  E  E  E  E  E  E  E  E   
--------------------------------------|
--------------------------------------|
--------------------------------------|
--5-----8--7-----1-----5--3-----------|
--------------------------------5-----|


  E  E  E  E  H.           S S S S S S S S    E  E  E  E  W                 
-------------------------------------------|-----7-----7-------------------|
-------------------------------------------|-------------------------------|
--5------------------------5-5-5-5-5-5-5-5-|--5----------------------------|
-----5-------------------------------------|-------------------------------|
--------6--3-------------------------------|-------------------------------|


  E  E  E  E  E  E  E  E  H.              E  E   E  E  E  E  E  E  E  E  E  E   
---------------------------------------|---------------------------------------|
---------------------------------------|--7-----10--9-----3-----7--5-----------|
---------------------------------------|---------------------------------7-----|
-----------------------3--5------------|---------------------------------------|
-----3--5--6--3--5--6------------------|---------------------------------------|


  E  E  E  E  E  E     W                Q    H         
--------------------|---------------------------------|
--------------------|---------------------------------|
--8--7--5--8--7-----|--5----------------L----3--------|
-----------------8--|---------------------------------|
--------------------|---------------------------------|


  E  H.           E  H           W                Q    H         
------------------------------|---------------------------------|
------------------------------|---------------------------------|
------------------------------|--5----------------L-------------|
-----1------------3--L--------|------------------------0--------|
------------------------------|---------------------------------|


  W                H           W                Q    H         
----------------------------|---------------------------------|
----------------------------|---------------------------------|
-------------------3--------|--5----------------L----3--------|
--1-------------------------|---------------------------------|
----------------------------|---------------------------------|


  E  H.           E  H           W                Q    H         
------------------------------|---------------------------------|
------------------------------|---------------------------------|
------------------------------|--5----------------L-------------|
-----1------------3--L--------|------------------------0--------|
------------------------------|---------------------------------|


  Q.     Q.     Q.     Q.        E  E  E  E  E  E  E  E  E   
------------------------------|-----------------------------|
------------------------------|-----------------------------|
------------------------------|-----------------------------|
--1------3------5------6------|--5--3--5--6--5--3--6--5--3--|
------------------------------|-----------------------------|


    E  E  E  E  E  E  E  E  E   E     E  E  E  E  E  E  E  E  E   
|----------------------------------|-----------------------------|
|*---------------------------------|-----------------------------|
|----------------------------------|-----------------------------|
|*--5--3--5--6--5--3--0--1--3--/6--|--5--3--5--6--5--3--6--5--3--|
|----------------------------------|-----------------------------|


  E  E  E  E  E  E  E  E  E  E  E     E  E  E  E  E  E  E  E  E     
-----------------------------------|------------------------------||
-----------------------------------|-----------------------------*||
--------------------------3--------|------------------------------||
--5--3--5--6--5--3--5--6-----6--3--|--5--3--5--6--5--3--6--5--3--*||
-----------------------------------|------------------------------||


  E  E  E  E  E  E  E  E  E  E  E  E   
--------------------------------------|
--------------------------------------|
--------------------------------------|
--5--3--5--6--5--3--6--5--3--6--5--3--|
--------------------------------------|


  E  E  E  E  E  E  E  E  E  E  E  E  E  E       E  E  E  E  E  E  E  E  E   
--------------------------------------------||------------------------------|
--------------------------------------------||*-----------------------------|
--------------------------3--------3--------||------------------------------|
--5--3--5--6--5--3--5--6-----6--3-----6--3--||*--5--3--5--6--5--3--6--5--3--|
--------------------------------------------||------------------------------|


  E  E  E  E  E  E  E  E  E   E     E  E  E  E  E  E  E  E  E   
---------------------------------|-----------------------------|
---------------------------------|-----------------------------|
---------------------------------|-----------------------------|
--5--3--5--6--5--3--0--1--3--/6--|--5--3--5--6--5--3--6--5--3--|
---------------------------------|-----------------------------|


  E  E  E  E  E  E  E  E  E  E  E       E  E  E  E  E  E  E  E  E  E  E  E   
------------------------------------||--------------------------------------|
-----------------------------------*||--------------------------------------|
--------------------------3---------||--------------------------------------|
--5--3--5--6--5--3--5--6-----6--3--*||--5--3--5--6--5--3--6--5--3--6--5--3--|
------------------------------------||--------------------------------------|


  E  E  E  E  E  E  E  E  E  E  E  E  E  E     E  E  E  E  E  E  E  E  E   
--------------------------------------------|-----------------------------|
--------------------------------------------|-----------------------------|
--------------------------3--------3--------|-----------------------------|
--5--3--5--6--5--3--5--6-----6--3-----6--3--|--5--3--5--6--5--3--6--5--3--|
--------------------------------------------|-----------------------------|


  E  E  E  E  E  E  E  E  E   E     E  E  E  E  E  E  E  E  E   
---------------------------------|-----------------------------|
---------------------------------|-----------------------------|
---------------------------------|-----------------------------|
--5--3--5--6--5--3--0--1--3--/6--|--5--3--5--6--5--3--6--5--3--|
---------------------------------|-----------------------------|


  E  E  E  E  E  E  E  E  E  E  E     E  E  E  E  E  E  E  E  E   
-----------------------------------|-----------------------------|
-----------------------------------|-----------------------------|
--------------------------3--------|-----------------------------|
--5--3--5--6--5--3--5--6-----6--3--|--5--3--5--6--5--3--6--5--3--|
-----------------------------------|-----------------------------|


  E  E  E  E  E  E  E  E  E   E     E  E  E  E  E  E  E  E  E  E  E  E   
---------------------------------|--------------------------------------|
---------------------------------|--------------------------------------|
---------------------------------|--------------------------------------|
--5--3--5--6--5--3--0--1--3--/6--|--5--3--5--6--5--3--6--5--3--6--5--3--|
---------------------------------|--------------------------------------|


  E  E  E  E  E  E  E  E  E  E  E  E  E  E       H.           H.            
--------------------------------------------||-----------------------------|
--------------------------------------------||*----------------------------|
--------------------------3--------3--------||-----------------------------|
--5--3--5--6--5--3--5--6-----6--3-----6--3--||*--5------------6------------|
--------------------------------------------||-----------------------------|


  H.           H        E  E     H.           Q.     E   Q     
------------------------------|-------------------------------|
------------------------------|-------------------------------|
--3------------5--------3-----|-------------------------------|
---------------------------6--|--5------------6------L\--1----|
------------------------------|-------------------------------|


  H.           H        Q         Q.     Q.     Q.      Q.        Q    E  Q     
------------------------------||-------------------------------|---------------|
-----------------------------*||-------------------------------|---------------|
------------------------------||-------------------------------|---------------|
--0------------1--------3----*||--0------1------3------/6------|--5-------5----|
------------------------------||-------------------------------|---------------|


  Q    E  Q    Q       Q    E  Q       Q    E  Q    Q         Q    E  Q     
--------------------|---------------|--------------------||----------------|
--------------------|---------------|--------------------||*---------------|
--------------------|---------------|--------------------||----------------|
--5-------5----5----|--5-------5----|--5-------5----5----||*---------------|
--------------------|---------------|--------------------||---3-------3----|


  Q    E  Q    Q          Q    E  Q       Q    E  Q    Q       
---------------------||----------------|---------------------||
--------------------*||*---------------|--------------------*||
---------------------||----------------|---------------------||
--------------------*||*--2-------2----|--2-------2----2----*||
--3-------3----3-----||----------------|---------------------||


    Q.      Q       Q.      Q    Q         Q.      Q    Q     
-----------------|---------------------||--------------------|
*--/4------/4----|---------/4---------*||---------/4---------|
-----------------|---------------------||--------------------|
*----------------|--2------------2----*||--2------------2----|
-----------------|---------------------||--------------------|


   Q.      Q.       Q.       Q.         Q    Q    Q    Q    Q    Q     
-------------------------------------|--------------------------------|
--/4---------------------------------|----------------------7---------|
----------------------------/6\------|-------5---------4---------8----|
----------/8\------/5\---------------|--3---------6-------------------|
-------------------------------------|--------------------------------|


   Q     Q     Q     Q     Q     Q        Q     Q     Q     Q     Q     Q     
--------------------------14----------|--------19----------------------------|
--------12----------11----------15----|--17----------20----------------------|
--10----------13----------------------|--------------------17----------------|
--------------------------------------|--------------------------15----13----|
--------------------------------------|--------------------------------------|


   E   E   E   E   E      E   E  E   E   E     E  E  E  E  E  E  E   
--14------------------|--10------9----------|--7--------5-----------|
------15--17--14------|------12-----10------|-----7--5-----5--3--2--|
------------------17--|-----------------12--|-----------------------|
----------------------|---------------------|-----------------------|
----------------------|---------------------|-----------------------|


  E  E  E  E  E  E  E     S Q.     S S S Q    S S    S Q.     S Q.     E   
-----------------------|--------------------------|-----------------------|
-----------------------|--------------------------|-----------------------|
--5--------3-----------|-------------5---5----3-5-|-------------5---------|
-----5--3-----3--1--0--|-----------5--------------|-----------5-----------|
-----------------------|----3----------3----------|----3---------------3--|


  S Q.     S Q.     E      E  S S Q      S  S  S  S  Q      
------------------------|----------------------------------|
------------------------|----------------------------------|
------------------------|---------5------------------------|
----3------5-6------L\--|-----5--------/10-10-10-10-10\----|
------------------------|--3----3--------------------------|


  S Q.     S S S Q    S S    S Q.     S Q.     E     S Q.     S Q.     E    
--------------------------|-----------------------|------------------------|
--------------------------|-----------------------|------------------------|
-------------5---5----3-5-|-------------5---------|------------------------|
-----------5--------------|-----------5-----------|----3------5-6------L\--|
----3----------3----------|----3---------------3--|------------------------|


  E  S S Q      S  S  S  S  Q        E.  S S S S S Q    S S S S  
----------------------------------|-----------------------------|
----------------------------------|--------7---5-7------7---5-7-|
---------5------------------------|--0---0---0-----0------0-----|
-----5--------/10-10-10-10-10\----|-----------------------------|
--3----3--------------------------|-----------------------------|


  E.  S S S S S E.   S E  E     E.  S Q    Q.     S S  
-----------------------------|------------------------|
--------7---5-7--------7--7--|------------------------|
--0---0---0-----0---/7-------|--------5---------------|
-----------------------------|------5------1------1-1-|
-----------------------------|--3---------------------|


  E.  S Q     S S E  S S E      E.  S S S S S E  S S S S S S  
-----------------------------|-------------------------------|
------5-7----/7-7-7--7-------|--------7---5-7--------7---5-7-|
--0--------------------7-7\--|--0---0---0-----0--0-0---0-----|
-----------------------------|-------------------------------|
-----------------------------|-------------------------------|


  S Q.     S H           E.  S E.  S E.  S Q     
----------------------|-------------------------|
----------------------|------------------3-3----|
----------------------|--------5---3------------|
----3------2-L--------|------5-------1----------|
----------------------|--3----------------------|


             |-6-| |-6-| |-3-|                                 
  E.  S Q    S S S S S S S S S S S    E.  S Q    Q    S S E    
-----------------------------------|--------------------------|
--------7--------------------------|--------------------------|
--0---7------0-0-0-0-0-0-0-0-0-0-0-|--------7-------------7\--|
-----------------------------------|--0---7------0----L-7-----|
-----------------------------------|--------------------------|


  Q.     S  S Q    E  E     S Q.      S Q    E  S S  
-------------------------|--------------------------|
-------------------------|--------------3----3--3-5-|
--5------L\--------------|-----------/3-------------|
------------5---------3--|----1---------------------|
--------------3----3-----|--------------------------|


   E.  S E.  S E.  S S S E      S Q.      S Q    E  E      H         Q    Q     
-----------------------------|--------------------------|----------------------|
---------7-----------7---7\--|--------------5-----------|----------------------|
-------------7-0---0---0-----|-----------/5-------------|-----------/8----7----|
--/5---5---------------------|----3--------------3--L\--|--1-------------------|
-----------------------------|--------------------------|----------------------|


  Q    S S E  Q    E  E      E.  S Q    S S S S  S S E    
--------------------------|--------3---------------------|
--------------------------|------3--------------/8-8-8\--|
--5----5------3----3--L\--|--1----------1-1-1-1----------|
---------5----------------|------------------------------|
-----------3--------------|------------------------------|


  S S S S S S S S S S S S S S S S    S S S S S S S S S S S S S S S S  
----------------------------------|----------------------------------|
----------------------------------|----------------------------------|
----------------------------------|----------------------------------|
----------------------------------|--0-0-0-0-0-0-0-0-0-0-0-0-0-0-0-0-|
--3-3-3-3-3-3-3-3-3-3-3-3-3-3-3-3-|----------------------------------|


  S S S S S S S S S S S S S S S S    S S S S S S S S S S S S S S S S  
----------------------------------|----------------------------------|
----------------------------------|----------------------------------|
----------------------------------|----------------------------------|
--5-5-5-5-5-5-5-5-3-3-3-3-3-3-3-3-|--2-2-2-2-2-2-2-2-2-2-2-2-2-2-2-2-|
----------------------------------|----------------------------------|


  S S S S S S S S S S S S S S S S    S S S S S S S S  S S S S S S E   
----------------------------------|------------------/3-3-3-3-3------|
----------------------------------|-----------------------------3----|
----------------------------------|--1-1-1-1-1-1-1-1--------------1--|
--1-1-1-1-1-1-1-1-1-1-1-1-1-1-1-1-|----------------------------------|
----------------------------------|----------------------------------|


                                 |-3|                        
  E.  S Q    T T E.  S S S S     E  Q    H         E   S  S  
-----------------------------|------------------------------|
--------2----2---------------|------------------------------|
------2--------2-L-----------|--/7--7----7~--------L~--L\---|
--0--------------0---0-0-0-0-|------------------------------|
-----------------------------|------------------------------|


  W.               Q       W.                  Q    W.                
------------------------|-------------------|------------------------|
------------------------|-------------------|------------------------|
------------------------|-------------------|------------------------|
------------------------|-------------------|------------------------|
--3----------------L----|--L----------------|-------L----------------|


  W.                  Q    H        W                 
-------------------|---------------------------------|
-------------------|---------------------------------|
-------------------|---------------------------------|
-------------------|---------------------------------|
--L----------------|---------------------------------|


  H        W                   Q    H        W                 
----------------------------|---------------------------------|
----------------------------|---------------------------------|
----------------------------|---------------------------------|
----------------------------|---------------------------------|
----------------------------|---------------------------------|


  H        W                   Q    H        W                 
----------------------------|---------------------------------|
----------------------------|---------------------------------|
----------------------------|---------------------------------|
----------------------------|---------------------------------|
----------------------------|---------------------------------|


  H        W                   Q    H        W                 
----------------------------|---------------------------------|
----------------------------|---------------------------------|
----------------------------|---------------------------------|
----------------------------|---------------------------------|
----------------------------|---------------------------------|


  H        W                   W                E  E  E  E  E  E   
----------------------------|-------------------------------------|
----------------------------|-------------------------------------|
----------------------------|-------------------1--1--1--1--1--1--|
----------------------------|-------------------------------------|
----------------------------|-------------------------------------|


  E  E  E  E  E  E  E  E  E  E  E  E   
--------------------------------------|
--------------------------------------|
--1--1--1--1--1--1--------------------|
--------------------3--3--3--3--3--3--|
--------------------------------------|


  E  E  E  E  E  E  E  E  E  E  E  E  E  E   
--------------------------------------------|
--------------------------------------------|
--------------------5--5--5--5--5--5--5--5--|
--3--3--3--3--3--3--------------------------|
--------------------------------------------|


  E  E  E  E  E  E  E  E  E  E  E  E   
--------------------------------------|
--------------------------------------|
--5--5--5--5--5--5--5--5--5--5--5--5--|
--------------------------------------|
--------------------------------------|


  E  E  E  E  E  E  E  E  E  E  E  E  E  E   
--------------------------------------------|
--------------------------------------------|
--5--5--5--5--1--1--1--1--1--1--1--1--1--1--|
--------------------------------------------|
--------------------------------------------|


  E  E  E  E  E  E  E  E  E  E  E  E   
--------------------------------------|
--------------------------------------|
--1--1--------------------------------|
--------3--3--3--3--3--3--3--3--3--3--|
--------------------------------------|


  E  E  E  E  E  E  E  E  E  E  E  E  E  E   
--------------------------------------------|
--------------------------------------------|
--------5--5--5--5--5--5--5--5--5--5--5--5--|
--3--3--------------------------------------|
--------------------------------------------|


  E  E  E  E  E  E  E  E  E  E  E  E       E  E  E  E  E  E  E  E  E  E  E  E   
--------------------------------------||---------------------------------------|
--------------------------------------||*--------------------------------------|
--5--5--5--5--5--5--5--5--5--5--5--5--||---1--1--1--1--1--1--1--1--1--1--1--1--|
--------------------------------------||*--------------------------------------|
--------------------------------------||---------------------------------------|


  E  E  E  E  E  E  E  E  E  E  E  E     E  E  E  E  E  E  E  E  E  E  E  E   
--------------------------------------|--------------------------------------|
--------------------------------------|--------------------------------------|
--------------------------------------|--5--5--5--5--5--5--5--5--5--5--5--5--|
--3--3--3--3--3--3--3--3--3--3--3--3--|--------------------------------------|
--------------------------------------|--------------------------------------|


  E  E  E  E  E  E  E  E  E  E  E  E       E  E  Q    Q    W                 
---------------------------------------||-----------------------------------|
--------------------------------------*||-----------------------------------|
--5--5--5--5--5--5--5--5--5--5--5--5---||-----------------------------------|
--------------------------------------*||-----------------------------------|
---------------------------------------||--3--3--3--------------------------|


  E  E  Q    W                   E  E  Q    Q    W                 
------------------------------|-----------------------------------|
------------------------------|-----------------------------------|
------------------------------|-----------------------------------|
------------------------------|-----------------------------------|
--3--3--3---------------------|--3--3--3--------------------------|


  E  E  Q    W                   E  E  Q    Q    W                 
------------------------------|-----------------------------------|
------------------------------|-----------------------------------|
------------------------------|-----------------------------------|
------------------------------|-----------------------------------|
--3--3--3---------------------|--3--3--3--------------------------|


  E  E  Q    W                   E  E  Q    Q    W                 
------------------------------|-----------------------------------|
------------------------------|-----------------------------------|
------------------------------|-----------------------------------|
------------------------------|-----------------------------------|
--3--3--3---------------------|--3--3--3--------------------------|


  E  E  Q    W                   E  E  Q    Q    W                 
------------------------------|-----------------------------------|
------------------------------|-----------------------------------|
------------------------------|--1--1--1--------------------------|
------------------------------|-----------------------------------|
--3--3--3---------------------|-----------------------------------|


  E  E  Q    W                   E  E  Q    Q    W                 
------------------------------|-----------------------------------|
------------------------------|-----------------------------------|
------------------------------|-----------------------------------|
--3--3--3---------------------|-----------------------------------|
------------------------------|--3--3--3--------------------------|


  E  E  E  E  E  E  E  E  E  E  E  E       E  E  E  E  E  E  E  E  E  E  E  E   
--------------------------------------||---------------------------------------|
--------------------------------------||*--------------------------------------|
--5--5--5--5--5--5--5--5--5--5--5--5--||---1--1--1--1--1--1--1--1--1--1--1--1--|
--------------------------------------||*--------------------------------------|
--------------------------------------||---------------------------------------|


  E  E  E  E  E  E  E  E  E  E  E  E     E  E  E  E  E  E  E  E  E  E  E  E   
--------------------------------------|--------------------------------------|
--------------------------------------|--------------------------------------|
--------------------------------------|--5--5--5--5--5--5--5--5--5--5--5--5--|
--3--3--3--3--3--3--3--3--3--3--3--3--|--------------------------------------|
--------------------------------------|--------------------------------------|


  E  E  E  E  E  E  E  E  E  E  E  E       E  E  E  E  E  E  E  E  E  E  E  E   
---------------------------------------||--------------------------------------|
--------------------------------------*||--------------------------------------|
--5--5--5--5--5--5--5--5--5--5--5--5---||--3--3--3--3--3--3--3--3--3--3--3--3--|
--------------------------------------*||--------------------------------------|
---------------------------------------||--------------------------------------|


  E  E  E  Q.     H.              Q.     Q    E  Q.     Q    E   
-------------------------------|--------------------------------|
-------------------------------|--------------------------------|
--------5---------5------------|--0------0----0--0------0----0--|
--1--3-------------------------|--------------------------------|
-----------3-------------------|--------------------------------|


  Q.     Q    E  Q.     Q    E     Q.     Q    E  Q.     Q.      
--------------------------------|-------------------------------|
--------------------------------|-------------------------------|
--1------1----1--1------1----1--|--1------1----1--3------3------|
--------------------------------|-------------------------------|
--------------------------------|-------------------------------|


  E  E  E  Q.     H.              Q.     Q    E  Q.     E  E  E   
-------------------------------|---------------------------------|
-------------------------------|---------------------------------|
--------5---------5------------|--3------3----3--3------3--3--3--|
--1--3-------------------------|---------------------------------|
-----------3-------------------|---------------------------------|


  Q.     Q    E  Q.     E  E  E     Q.     Q    E  Q.     E  E  E   
---------------------------------|---------------------------------|
---------------------------------|---------------------------------|
--2------2----2--2------2--2--2--|--1------1-------1---------1--1--|
---------------------------------|--------------1---------1--------|
---------------------------------|---------------------------------|


  E  E  E  Q.     H.              Q.     Q    E  Q.     Q    E   
-------------------------------|--------------------------------|
-------------------------------|--------------------------------|
--------5---------5------------|--0------0----0--0------0----0--|
--1--3-------------------------|--------------------------------|
-----------3-------------------|--------------------------------|


  Q.     Q    E  Q.     Q    E     Q.     Q    E  Q.     Q.      
--------------------------------|-------------------------------|
--------------------------------|-------------------------------|
--1------1----1--1------1----1--|--1------1----1--3------3------|
--------------------------------|-------------------------------|
--------------------------------|-------------------------------|


  E  E  E  Q.     H.              Q    E  Q    E  Q    Q    Q     
-------------------------------|---------------------------------|
-------------------------------|---------------------------------|
--------5---------5------------|--3----3--3----3--3----3----3----|
--1--3-------------------------|---------------------------------|
-----------3-------------------|---------------------------------|


  Q    E  Q    E  Q    H           Q    Q    E  E  Q    H         
--------------------------------|--------------------------------|
--------------------------------|--------------------------------|
--2----2--2----2--2----2--------|--1----1----1--1--1----1--------|
--------------------------------|--------------------------------|
--------------------------------|--------------------------------|


  E  E  E  E  E  E  E  E  E   E  E  E  E  E   
---------------------------------------------|
--0--0--0--7--0--5--0--7--0--10--9--0--5--0--|
---------------------------------------------|
---------------------------------------------|
---------------------------------------------|


  E  E   E   E  E   E  E  E  E   E  E  E   
------------------------------------------|
--7--0--14--10--0--12--0--7--0--10--9--0--|
------------------------------------------|
------------------------------------------|
------------------------------------------|


  E  E  E  E  E  E  E  E  E   E   E  E  E  E   
----------------------------------------------|
--0--0--0--7--0--5--0--7--0--12--10--0--5--0--|
----------------------------------------------|
----------------------------------------------|
----------------------------------------------|


  E  E   E  E  E  E  E  E  E  E  E  E     E  E  E  Q.     W                 
---------------------------------------|-----------------------------------|
--7--0--10--9--0--3--0--7--5--0--2--3--|-----------------------------------|
---------------------------------------|-----------------------------------|
---------------------------------------|-----------------------------------|
---------------------------------------|--3--3--3--------------------------|


  E  E  E  E  W                   E  E  E  Q.     W                 
-------------------------------|-----------------------------------|
-------------------------------|-----------------------------------|
-------------------------------|-----------------------------------|
-------------------------------|-----------------------------------|
--3--3--3----------------------|--3--3--3--------------------------|


  E  E  E  E  W                   E  E  E  Q.     W                 
-------------------------------|-----------------------------------|
-------------------------------|-----------------------------------|
-------------------------------|--1--1--1--------------------------|
-------------------------------|-----------------------------------|
--3--3--3----------------------|-----------------------------------|


  E  E  E  E  W                   E  E  E  Q.     W                 
-------------------------------|-----------------------------------|
-------------------------------|-----------------------------------|
-------------------------------|-----------------------------------|
--3--3--3----------------------|-----------------------------------|
-------------------------------|--3--3--3--------------------------|


  E  E  E  E  W                   Q.     Q    E  Q.     Q    E   
-------------------------------|--------------------------------|
-------------------------------|--------------------------------|
-------------------------------|--------------------------------|
-------------------------------|--0------0----0--0------0----0--|
--3--3--3----------------------|--------------------------------|


  Q.     Q    E  Q.     Q.        Q.     Q    E  Q.     Q    E   
-------------------------------|--------------------------------|
-------------------------------|--------------------------------|
-------------------------------|--------------------------------|
--0------0----0--0------0------|--1------1----1--1------1----1--|
-------------------------------|--------------------------------|


  Q.     Q    E  Q.     Q.        Q.     Q    E  Q.     Q    E   
-------------------------------|--------------------------------|
-------------------------------|--------------------------------|
-------------------------------|--------------------------------|
--1------1----1--1------1------|--------------------------------|
-------------------------------|--3------3----3--3------3----3--|


  Q.     Q    E  Q.     Q.        Q.     Q    E  Q.     Q    E   
-------------------------------|--------------------------------|
-------------------------------|--------------------------------|
-------------------------------|--1------1----1--1------1----1--|
-------------------------------|--------------------------------|
--3------3----3--3------3------|--------------------------------|


  Q.     Q    E  Q.     Q.        Q.     Q    E  Q.     Q    E   
-------------------------------|--------------------------------|
-------------------------------|--------------------------------|
--1------1----1--1------1------|--------------------------------|
-------------------------------|--0------0----0--0------0----0--|
-------------------------------|--------------------------------|


  Q.     Q    E   Q    Q       Q.     Q    E  Q.     Q    E   
----------------------------|--------------------------------|
----------------------------|--------------------------------|
-----------------/7----7----|--------------------------------|
--0------0----0-------------|--1------1----1--1------1----1--|
----------------------------|--------------------------------|


  Q.     Q    E   Q    Q       Q.     Q    E  Q      H          
----------------------------|----------------------------------|
----------------------------|----------------------------------|
-----------------/8----8----|--5------5----5--5s----15\--------|
--1------1----1-------------|----------------------------------|
----------------------------|----------------------------------|


  Q.     Q    E  Q    Q       Q.     Q    E  Q.     Q    E   
---------------------------|--------------------------------|
---------------------------|--------------------------------|
---------------------------|--1------1----1--1------1----1--|
---------------------------|--------------------------------|
--3------3----3--3----3----|--------------------------------|


   Q.     Q    E  Q.     Q    E      Q.     Q    E  Q.     Q    E   
----------------------------------|--------------------------------|
--/8------8----8--8------8----L\--|--------------------------------|
----------------------------------|--------------------------------|
----------------------------------|--0------0----0--0------0----0--|
----------------------------------|--------------------------------|


  Q.     Q    E  Q.     Q.        Q.     Q    E  Q.     Q    E   
-------------------------------|--------------------------------|
-------------------------------|--------------------------------|
-------------------------------|--------------------------------|
--0------0----0--0------0------|--4------4----4--4------4----4--|
-------------------------------|--------------------------------|


  Q.     Q    E  Q.     Q.        Q.     Q    E  Q.     Q    E   
-------------------------------|--------------------------------|
-------------------------------|--------------------------------|
-------------------------------|--0------0----0--0------0----0--|
--4------4----4--4------4------|--------------------------------|
-------------------------------|--------------------------------|


  Q.     Q    E  Q.     Q.        Q.     Q    E  Q.     Q    E   
-------------------------------|--------------------------------|
-------------------------------|--------------------------------|
--0------0----0--0------0------|--------------------------------|
-------------------------------|--1------1----1--1------1----1--|
-------------------------------|--------------------------------|


  Q.     Q    E  Q.     Q.        Q.     Q    E  Q.     Q    E   
-------------------------------|--------------------------------|
-------------------------------|--------------------------------|
-------------------------------|--------------------------------|
--1------1----1--1------1------|--------------------------------|
-------------------------------|--3------3----3--3------3----3--|


  Q.     Q    E    Q     E   E   Q        Q.     Q    E  Q.     Q    E   
---------------------------------------|--------------------------------|
---------------------------------------|--------------------------------|
---------------------------------------|--------------------------------|
-----------------/10----10--10--10\----|--4------4----4--4------4----4--|
--3------3----3------------------------|--------------------------------|


  Q.     Q    E  Q.     Q.        Q.     Q    E  Q.     Q    E   
-------------------------------|--------------------------------|
-------------------------------|--------------------------------|
-------------------------------|--------------------------------|
--4------4----4--4------4------|--0------0----0--0------0----0--|
-------------------------------|--------------------------------|


   Q.     Q    E  H.               Q.     Q    E  Q.     Q    E   
--------------------------------|--------------------------------|
--------------------------------|--------------------------------|
--/7------7----7--7\------------|--1------1----1--1------1----1--|
--------------------------------|--------------------------------|
--------------------------------|--------------------------------|


  Q.     Q    E  Q.     Q.        W.                  W.                
-------------------------------|-------------------|-------------------|
-------------------------------|-------------------|-------------------|
--1------1----1--1------1------|-------------------|-------------------|
-------------------------------|-------------------|-------------------|
-------------------------------|--0----------------|--L----------------|


  W.                  W.                  W                H         
-------------------|-------------------|----------------------------|
-------------------|-------------------|----------------------------|
-------------------|-------------------|----------------------------|
-------------------|-------------------|----------------------------|
--L----------------|--L----------------|----------------------------|


  W                H           W                H         
----------------------------|----------------------------|
----------------------------|----------------------------|
----------------------------|----------------------------|
----------------------------|----------------------------|
----------------------------|----------------------------|


  W                H          
----------------------------||
----------------------------||
----------------------------||
----------------------------||
----------------------------||




Duration Legend
---------------
W - whole
H - half
Q - quarter
E - 8th
S - 16th
T - 32nd
X - 64th
. - note dotted
|-n-|  - n-tuplets


Tablature Legend
----------------
L - tied note
x - dead note
g - grace note
(n) - ghost note
> - accentuded note
NH - natural harmonic
AH - artificial harmonic
TH - tapped harmonic
SH - semi harmonic
PH - pitch harmonic
h - hammer on
p - pull off
b - bend
br - bendRelease
pb - preBend
pbr - preBendRelease
brb - bendReleaseBend
\n/ - tremolo bar dip
\n - tremolo bar dive
-/n - tremolo bar Release up
/n\ - tremolo bar inverted dip
/n - tremolo bar return
-\n - tremolo bar Release down
S - shift slide
s - legato slide
/ -  slide into from below or out of upwards
\ -  slide into from above or out of downwards
~ - vibrato
W - wide vibrato
tr - trill
TP - tremolo picking
T - tapping
S - slap
P - pop
< - fade in
^ - brush up
v - brush down

            
            
Suggest correction
Creating personal tab
Creating personal tab
You can edit any tab online and save it as your Personal.

You can edit, replace or remove any tab part or add personal notes – all changes will be seen only by you.

Personal tabs can be accessed anytime from any device, even offline.
Learn more »
comments
print report bad tab
1 comment total.
0 reply
SirToasty 10 Apr 02, 2013 06:35 PM

Myung plays on 6 strings almost exclusively so you could rewrite the opening riff to make it more manageable.

I take a little issue with the note value notation on there. Anytime there are two values tied together, you have the the shorter one first even if it makes more sense with the subdivision to have the shorter one later. For example, a dotted quarter note tied to a 16th followed by 3 16ths you have as S Q. SSS instead of Q.S SSS or even Q.. SSS. Either of those keep subdivisions together and are easier to read. Otherwise just a few displaced octaves. Great stuff.

guest
You may want to rate the tab now too:
select rating
Wanna post a correction for this tab? Suggest correction