Oops, an error
Loading. Please wait.

In The Presence Of Enemies Part 2 tab

version 1
version 1

Whole song

Interactive

13,948 views 12 this week
11 commentsread comments
1 2 3 4 5
x 3
add to favorites
×
Save as Personal and add changes to this tab that will be seen only by you. Learn more ›
×
You can save this tab as Personal to edit and correct it or add notes. All changes will be seen only by you. Learn more »
launch autoscroll
font size
0
reset
how to read this tab
guitar tuner
backing track
0:00
0:00
edit
Autoscroll
slow
fast
+/-
esc
set tempo
stop
Author
Difficulty
Dream Theater: In The Presence Of Enemies - Part 2

Transcribed by: Andrew Zara (disturbedfreak0520@yahoo.com)

Date last modified: June 23, 2007

PLEASE DO NOT COPY THIS TAB TO ANOTHER SITE 
WITHOUT AUTHORS' PERMISSION. THANK YOU.

Tuning: Standard (E,A,D,G,B,E)

NOTES: Once again this song is split up between four guitars, each
tabbed separately.

Guitar 1

W                   W                   W                 
E||-------------------|-------------------|-------------------|
B||-------------------|-------------------|-------------------|
G||-------------------|-------------------|-------------------|
D||-------------------|-------------------|-------------------|
A||-------------------|-------------------|-------------------|
E||-------------------|-------------------|-------------------|


  W                   W                   W                   W                 
-------------------|-------------------|-------------------|-------------------|
-------------------|-------------------|-------------------|-------------------|
-------------------|-------------------|-------------------|-------------------|
-------------------|-------------------|-------------------|-------------------|
-------------------|-------------------|-------------------|-------------------|
-------------------|-------------------|-------------------|-------------------|


  W                   W                   W                   W                 
-------------------|-------------------|-------------------|-------------------|
-------------------|-------------------|-------------------|-------------------|
-------------------|-------------------|-------------------|-------------------|
-------------------|-------------------|-------------------|-------------------|
-------------------|-------------------|-------------------|-------------------|
-------------------|-------------------|-------------------|-------------------|


  W                   W                   W                   W                 
-------------------|-------------------|-------------------|-------------------|
-------------------|-------------------|-------------------|-------------------|
-------------------|-------------------|-------------------|-------------------|
-------------------|-------------------|-------------------|-------------------|
-------------------|-------------------|-------------------|-------------------|
-------------------|-------------------|-------------------|-------------------|


  W                   W                   W                   W                 
-------------------|-------------------|-------------------|-------------------|
-------------------|-------------------|-------------------|-------------------|
-------------------|-------------------|-------------------|-------------------|
-------------------|-------------------|-------------------|-------------------|
-------------------|-------------------|-------------------|-------------------|
-------------------|-------------------|-------------------|-------------------|


  W                   W                    Q     Q      E.   S E.  S  
-------------------|-------------------|-----------------------------|
-------------------|-------------------|-----------------------------|
-------------------|-------------------|--10-----L~-----L~-----7-----|
-------------------|-------------------|-----------------------------|
-------------------|-------------------|-----------------------------|
-------------------|-------------------|-----------------------------|


  Q    Q     Q.      E      Q     Q      Q.      E   
------------------------|---------------------------|
------------------------|---------------------------|
--9----L~----L~---------|--12-----L~-----L~---------|
------------------------|---------------------------|
------------------------|---------------------------|
------------------------|---------------------------|


   Q     Q      E.   S  E.  S     Q     Q      Q.      E   
------------------------------|---------------------------|
------------------------------|---------------------------|
--13-----L~-----L~-----10-----|--12-----L~-----L~---------|
------------------------------|---------------------------|
------------------------------|---------------------------|
------------------------------|---------------------------|


   E   Q     E  E  Q     E     Q    Q     H            H         Q.      E   
----------------------------|-----------------------|-----------------------|
----------------------------|-----------------------|-----------------------|
--10---L~-------9--L~-------|-----------------------|-----------------------|
----------------------------|--8----L~----L~--------|--L~--------L~---------|
----------------------------|-----------------------|-----------------------|
----------------------------|-----------------------|-----------------------|


   Q     Q      Q.      E      Q     Q      Q.      E   
---------------------------|---------------------------|
---------------------------|---------------------------|
---------------------------|---------------------------|
--10-----L~-----L~---------|--12-----L~-----L~---------|
---------------------------|---------------------------|
---------------------------|---------------------------|


  Q    Q     Q.      E     Q    Q     Q.      E     Q    Q     H          
------------------------|------------------------|-----------------------|
------------------------|------------------------|-----------------------|
------------------------|------------------------|-----------------------|
--8----L~----L~---------|--5----L~----L~---------|--7----L~----L~--------|
------------------------|------------------------|-----------------------|
------------------------|------------------------|-----------------------|


  H        Q.     E     W                   W                 
---------------------|-------------------|-------------------|
---------------------|-------------------|-------------------|
---------------------|-------------------|-------------------|
--L--------L---------|-------------------|-------------------|
---------------------|-------------------|-------------------|
---------------------|-------------------|-------------------|


  W                   W                     W                E   
-------------------|-------------------||-----------------------|
-------------------|-------------------||-----------------------|
-------------------|-------------------||*----------------------|
-------------------|-------------------||*----------------------|
-------------------|-------------------||-----------------------|
-------------------|-------------------||-----------------------|


  W                   W                E     W                 
-------------------|----------------------|-------------------|
-------------------|----------------------|-------------------|
-------------------|----------------------|-------------------|
-------------------|----------------------|-------------------|
-------------------|----------------------|-------------------|
-------------------|----------------------|-------------------|


  W                E     W                     W                 
----------------------|--------------------||-------------------|
----------------------|--------------------||-------------------|
----------------------|-------------------*||-------------------|
----------------------|-------------------*||-------------------|
----------------------|--------------------||-------------------|
----------------------|--------------------||-------------------|


  W                   W                   W                   W                 
-------------------|-------------------|-------------------|-------------------|
-------------------|-------------------|-------------------|-------------------|
-------------------|-------------------|-------------------|-------------------|
-------------------|-------------------|-------------------|-------------------|
-------------------|-------------------|-------------------|-------------------|
-------------------|-------------------|-------------------|-------------------|


  W                   W                   W                   W                 
-------------------|-------------------|-------------------|-------------------|
-------------------|-------------------|-------------------|-------------------|
-------------------|-------------------|-------------------|-------------------|
-------------------|-------------------|-------------------|-------------------|
-------------------|-------------------|-------------------|-------------------|
-------------------|-------------------|-------------------|-------------------|


    W                   W                   W                 
|--------------------|-------------------|-------------------|
|--------------------|-------------------|-------------------|
|*-------------------|-------------------|-------------------|
|*-------------------|-------------------|-------------------|
|--------------------|-------------------|-------------------|
|--------------------|-------------------|-------------------|


  W                     W                   W                E   
--------------------||-------------------|----------------------|
--------------------||-------------------|----------------------|
-------------------*||-------------------|----------------------|
-------------------*||-------------------|----------------------|
--------------------||-------------------|----------------------|
--------------------||-------------------|----------------------|


  W                   W                E     W                 
-------------------|----------------------|-------------------|
-------------------|----------------------|-------------------|
-------------------|----------------------|-------------------|
-------------------|----------------------|-------------------|
-------------------|----------------------|-------------------|
-------------------|----------------------|-------------------|


  W                E     W                   W                 
----------------------|-------------------|-------------------|
----------------------|-------------------|-------------------|
----------------------|-------------------|-------------------|
----------------------|-------------------|-------------------|
----------------------|-------------------|-------------------|
----------------------|-------------------|-------------------|


  W                   W                   W                   W                 
-------------------|-------------------|-------------------|-------------------|
-------------------|-------------------|-------------------|-------------------|
-------------------|-------------------|-------------------|-------------------|
-------------------|-------------------|-------------------|-------------------|
-------------------|-------------------|-------------------|-------------------|
-------------------|-------------------|-------------------|-------------------|


  W                   S S S S S S S S S S S S S S S S  
-------------------|----------------------------------|
-------------------|----------------------------------|
-------------------|----------------------------------|
-------------------|--3-3-3-3-3-3-3-3-3-3-3-3-3-3-3-3-|
-------------------|--1-1-1-1-1-1-1-1-1-1-1-1-1-1-1-1-|
-------------------|----------------------------------|


  S S S S S S S S S S S S S S S S    S S S S S S S S S S S S S S S S  
----------------------------------|----------------------------------|
----------------------------------|----------------------------------|
----------------------------------|----------------------------------|
--3-3-3-3-3-3-3-3-3-3-3-3-3-3-3-3-|--5-5-5-5-5-5-5-5-5-5-5-5-5-5-5-5-|
--1-1-1-1-1-1-1-1-1-1-1-1-1-1-1-1-|--3-3-3-3-3-3-3-3-3-3-3-3-3-3-3-3-|
----------------------------------|----------------------------------|


                                PM                                           
  S  S  S S  S  S S  S  S S  S  S   Q       S S S S S S S S S S S S S S S S  
-----------------------------------------|----------------------------------|
-----------------------------------------|----------------------------------|
-----------------------------------------|----------------------------------|
--0-15-17-0-14-15-0-12-14-0-10--0--10----|--3-3-3-3-3-3-3-3-3-3-3-3-3-3-3-3-|
--------------------------------0--10----|--1-1-1-1-1-1-1-1-1-1-1-1-1-1-1-1-|
-------------------------------(0)--8----|----------------------------------|


  S S S S S S S S S S S S S S S S    S S S S S S S S S S S S S S S S  
----------------------------------|----------------------------------|
----------------------------------|----------------------------------|
----------------------------------|----------------------------------|
----------------------------------|--2-2-2-2-2-2-2-2-2-2-2-2-2-2-2-2-|
--7-7-7-7-7-7-7-7-2-2-2-2-2-2-2-2-|--0-0-0-0-0-0-0-0-0-0-0-0-0-0-0-0-|
--4-4-4-4-4-4-4-4-0-0-0-0-0-0-0-0-|----------------------------------|


                      |-3-| |-3-| |-3-|                      
  S S S S S S S S S S S S S S S S S S S    W                 
----------------------------------------|-------------------|
----------------------------------------|--3----------------|
----------------------------------------|--2----------------|
--2-2-2-2-2-2-2-2-2-2-2-3-2-0-----------|--0----------------|
--0-0-0-0-0-0-0-0-0-0---------3-1-0-----|--0----------------|
------------------------------------1-0-|-------------------|


  W                   W                   Q    E  E  E  E  Q      
-------------------|-------------------|-------------------------|
--3----------------|--3----------------|--3----------------------|
--2----------------|--2----------------|--2----------------------|
--0----------------|--0----------------|--0----------------------|
--0----------------|--0----------------|--0----------8--7--------|
-------------------|-------------------|-------5--6--------4~----|


  W                   W                   W                   W                 
-------------------|-------------------|-------------------|-------------------|
--3----------------|--3----------------|--3----------------|--5----------------|
--2----------------|--2----------------|--2----------------|--4----------------|
--0----------------|--0----------------|--0----------------|--2----------------|
--0----------------|--0----------------|--0----------------|--2----------------|
-------------------|-------------------|-------------------|--0----------------|


                                       PM PM                      
  W                   Q    Q     Q     E  E     W                 
-------------------|-------------------------|-------------------|
--5----------------|--3----------------------|-------------------|
--4----------------|--2----------------------|-------------------|
--2----------------|--0----------------------|-------------------|
--2----------------|--0----------------3--2--|-------------------|
--0----------------|-------5~----4~----1--0--|-------------------|


  W                  
-------------------||
-------------------||
-------------------||
-------------------||
-------------------||
-------------------||

***************************************************
***************************************************
***************************************************

Guitar 2

W                   W                   W                 
E||-------------------|-------------------|-------------------|
B||-------------------|-------------------|-------------------|
G||-------------------|-------------------|-------------------|
D||-------------------|-------------------|-------------------|
A||-------------------|-------------------|-------------------|
E||-------------------|-------------------|-------------------|


  W                   W                   W                   W                 
-------------------|-------------------|-------------------|-------------------|
-------------------|-------------------|-------------------|-------------------|
-------------------|-------------------|-------------------|-------------------|
-------------------|-------------------|-------------------|-------------------|
-------------------|-------------------|-------------------|-------------------|
-------------------|-------------------|-------------------|-------------------|


  W                   W                   W                   W                 
-------------------|-------------------|-------------------|-------------------|
-------------------|-------------------|-------------------|-------------------|
-------------------|-------------------|-------------------|-------------------|
-------------------|-------------------|-------------------|-------------------|
-------------------|-------------------|-------------------|-------------------|
-------------------|-------------------|-------------------|-------------------|


  W                   W                   W                   W                 
-------------------|-------------------|-------------------|-------------------|
-------------------|-------------------|-------------------|-------------------|
-------------------|-------------------|-------------------|-------------------|
-------------------|-------------------|-------------------|-------------------|
-------------------|-------------------|-------------------|-------------------|
-------------------|-------------------|-------------------|-------------------|


  W                   W                   W                   W                 
-------------------|-------------------|-------------------|-------------------|
-------------------|-------------------|-------------------|-------------------|
-------------------|-------------------|-------------------|-------------------|
-------------------|-------------------|-------------------|-------------------|
-------------------|-------------------|-------------------|-------------------|
-------------------|-------------------|-------------------|-------------------|


  W                   W                   W                   W                 
-------------------|-------------------|-------------------|-------------------|
-------------------|-------------------|-------------------|-------------------|
-------------------|-------------------|-------------------|-------------------|
-------------------|-------------------|-------------------|-------------------|
-------------------|-------------------|-------------------|-------------------|
-------------------|-------------------|-------------------|-------------------|


  W                   W                   W                   W                 
-------------------|-------------------|-------------------|-------------------|
-------------------|-------------------|-------------------|-------------------|
-------------------|-------------------|-------------------|-------------------|
-------------------|-------------------|-------------------|-------------------|
-------------------|-------------------|-------------------|-------------------|
-------------------|-------------------|-------------------|-------------------|


  W                   W                   W                   W                 
-------------------|-------------------|-------------------|-------------------|
-------------------|-------------------|-------------------|-------------------|
-------------------|-------------------|-------------------|-------------------|
-------------------|-------------------|-------------------|-------------------|
-------------------|-------------------|-------------------|-------------------|
-------------------|-------------------|-------------------|-------------------|


  W                   W                   W                   W                 
-------------------|-------------------|-------------------|-------------------|
-------------------|-------------------|-------------------|-------------------|
-------------------|-------------------|-------------------|-------------------|
-------------------|-------------------|-------------------|-------------------|
-------------------|-------------------|-------------------|-------------------|
-------------------|-------------------|-------------------|-------------------|


  Q     Q     Q     E   E      Q     E   E   E   E   Q     
---------------------------|------------------------------|
---------------------------|------------12--13--15--12----|
-------14----13------------|--------14--------------------|
--0----------------15--14--|--12--------------------------|
---------------------------|------------------------------|
---------------------------|------------------------------|


  Q     Q     Q     E     E      W                 
-----------------------------|--------------------|
-----------------------------|--------------------|
-------14----13--------------|--------------------|
--0----------------14br---L--|--12----------------|
-----------------------------|--------------------|
-----------------------------|--------------------|


    S S  S S Q    H        E     S S S S Q    H         
|----------1-L----L--------L--|--------0-L----L--------|
|-----------------------------|------3-----------------|
|*----1h-2--------------------|----1-------------------|
|*--0-------------------------|--0---------------------|
|-----------------------------|------------------------|
|-----------------------------|------------------------|


  S S  S S Q    H        E     S S S S Q    H         
---------3-L----L--------L--|--------4-L----L--------|
----------------------------|------6-----------------|
----2h-3--------------------|----4-------------------|
--0-------------------------|--0---------------------|
----------------------------|------------------------|
----------------------------|------------------------|


  S S S S Q    H        E     S S S S Q    H           
--------3-L----L--------L--|--------1-L----0---------||
------6--------------------|------3------------------||
----3----------------------|----1-------------------*||
--0------------------------|--0---------------------*||
---------------------------|-------------------------||
---------------------------|-------------------------||


  S S S S S S E  H           W                   W                 
--------1-L------0--------|-------------------|-------------------|
------2-------2-----------|-------------------|-------------------|
----2-------2-------------|-------------------|-------------------|
--------------------------|-------------------|-------------------|
--0-----------------------|-------------------|-------------------|
--------------------------|-------------------|-------------------|


  W                   W                   W                   W                 
-------------------|-------------------|-------------------|-------------------|
-------------------|-------------------|-------------------|-------------------|
-------------------|-------------------|-------------------|-------------------|
-------------------|-------------------|-------------------|-------------------|
-------------------|-------------------|-------------------|-------------------|
-------------------|-------------------|-------------------|-------------------|


  W                   W                     W                 
-------------------|-------------------||--------------------|
-------------------|-------------------||--------------------|
-------------------|-------------------||*-------------------|
-------------------|-------------------||*-------------------|
-------------------|-------------------||--------------------|
-------------------|-------------------||--------------------|


  W                   W                   W                   
-------------------|-------------------|--------------------||
-------------------|-------------------|--------------------||
-------------------|-------------------|-------------------*||
-------------------|-------------------|-------------------*||
-------------------|-------------------|--------------------||
-------------------|-------------------|--------------------||


  W                   W                E     W                 
-------------------|----------------------|-------------------|
-------------------|----------------------|-------------------|
-------------------|----------------------|-------------------|
-------------------|----------------------|-------------------|
-------------------|----------------------|-------------------|
-------------------|----------------------|-------------------|


  W                E     W                   W                E   
----------------------|-------------------|----------------------|
----------------------|-------------------|----------------------|
----------------------|-------------------|----------------------|
----------------------|-------------------|----------------------|
----------------------|-------------------|----------------------|
----------------------|-------------------|----------------------|


  W                   W                   W                   W                 
-------------------|-------------------|-------------------|-------------------|
-------------------|-------------------|-------------------|-------------------|
-------------------|-------------------|-------------------|-------------------|
-------------------|-------------------|-------------------|-------------------|
-------------------|-------------------|-------------------|-------------------|
-------------------|-------------------|-------------------|-------------------|


  W                   W                   W                   W                 
-------------------|-------------------|-------------------|-------------------|
-------------------|-------------------|-------------------|-------------------|
-------------------|-------------------|-------------------|-------------------|
-------------------|-------------------|-------------------|-------------------|
-------------------|-------------------|-------------------|-------------------|
-------------------|-------------------|-------------------|-------------------|


  W                   W                   W                   W                 
-------------------|-------------------|-------------------|-------------------|
-------------------|-------------------|-------------------|-------------------|
-------------------|-------------------|-------------------|-------------------|
-------------------|-------------------|-------------------|-------------------|
-------------------|-------------------|-------------------|-------------------|
-------------------|-------------------|-------------------|-------------------|


  W                   W                   W                   W                 
-------------------|-------------------|-------------------|-------------------|
-------------------|-------------------|-------------------|-------------------|
-------------------|-------------------|-------------------|-------------------|
-------------------|-------------------|-------------------|-------------------|
-------------------|-------------------|-------------------|-------------------|
-------------------|-------------------|-------------------|-------------------|


  W                   W                   W                   W                 
-------------------|-------------------|-------------------|-------------------|
-------------------|-------------------|-------------------|-------------------|
-------------------|-------------------|-------------------|-------------------|
-------------------|-------------------|-------------------|-------------------|
-------------------|-------------------|-------------------|-------------------|
-------------------|-------------------|-------------------|-------------------|


  W                   W                   W                   W                 
-------------------|-------------------|-------------------|-------------------|
-------------------|-------------------|-------------------|-------------------|
-------------------|-------------------|-------------------|-------------------|
-------------------|-------------------|-------------------|-------------------|
-------------------|-------------------|-------------------|-------------------|
-------------------|-------------------|-------------------|-------------------|


  W                   W                   W                  
-------------------|-------------------|-------------------||
-------------------|-------------------|-------------------||
-------------------|-------------------|-------------------||
-------------------|-------------------|-------------------||
-------------------|-------------------|-------------------||
-------------------|-------------------|-------------------||

***********************************************************
***********************************************************
***********************************************************

Guitar 3

W                   W                   W                 
E||-------------------|-------------------|-------------------|
B||-------------------|-------------------|-------------------|
G||-------------------|-------------------|-------------------|
D||-------------------|-------------------|-------------------|
A||-------------------|-------------------|-------------------|
E||-------------------|-------------------|-------------------|


  W                   W                   W                   W                 
-------------------|-------------------|-------------------|-------------------|
-------------------|-------------------|-------------------|-------------------|
-------------------|-------------------|-------------------|-------------------|
-------------------|-------------------|-------------------|-------------------|
-------------------|-------------------|-------------------|-------------------|
-------------------|-------------------|-------------------|-------------------|


  W                   W                   W                   W                 
-------------------|-------------------|-------------------|-------------------|
-------------------|-------------------|-------------------|-------------------|
-------------------|-------------------|-------------------|-------------------|
-------------------|-------------------|-------------------|-------------------|
-------------------|-------------------|-------------------|-------------------|
-------------------|-------------------|-------------------|-------------------|


  W                   W                   W                   W                 
-------------------|-------------------|-------------------|-------------------|
-------------------|-------------------|-------------------|-------------------|
-------------------|-------------------|-------------------|-------------------|
-------------------|-------------------|-------------------|-------------------|
-------------------|-------------------|-------------------|-------------------|
-------------------|-------------------|-------------------|-------------------|


  W                   W                   W                   W                 
-------------------|-------------------|-------------------|-------------------|
-------------------|-------------------|-------------------|-------------------|
-------------------|-------------------|-------------------|-------------------|
-------------------|-------------------|-------------------|-------------------|
-------------------|-------------------|-------------------|-------------------|
-------------------|-------------------|-------------------|-------------------|


  W                   W                   W                   W                 
-------------------|-------------------|-------------------|-------------------|
-------------------|-------------------|-------------------|-------------------|
-------------------|-------------------|-------------------|-------------------|
-------------------|-------------------|-------------------|-------------------|
-------------------|-------------------|-------------------|-------------------|
-------------------|-------------------|-------------------|-------------------|


  W                   W                   W                   W                 
-------------------|-------------------|-------------------|-------------------|
-------------------|-------------------|-------------------|-------------------|
-------------------|-------------------|-------------------|-------------------|
-------------------|-------------------|-------------------|-------------------|
-------------------|-------------------|-------------------|-------------------|
-------------------|-------------------|-------------------|-------------------|


  W                   W                   W                   W                 
-------------------|-------------------|-------------------|-------------------|
-------------------|-------------------|-------------------|-------------------|
-------------------|-------------------|-------------------|-------------------|
-------------------|-------------------|-------------------|-------------------|
-------------------|-------------------|-------------------|-------------------|
-------------------|-------------------|-------------------|-------------------|


  W                   W                   W                   W                 
-------------------|-------------------|-------------------|-------------------|
-------------------|-------------------|-------------------|-------------------|
-------------------|-------------------|-------------------|-------------------|
-------------------|-------------------|-------------------|-------------------|
-------------------|-------------------|-------------------|-------------------|
-------------------|-------------------|-------------------|-------------------|


  W                   W                   W                   W                 
-------------------|-------------------|-------------------|-------------------|
-------------------|-------------------|-------------------|-------------------|
-------------------|-------------------|-------------------|-------------------|
-------------------|-------------------|-------------------|-------------------|
-------------------|-------------------|-------------------|-------------------|
-------------------|-------------------|-------------------|-------------------|


    W                E     W                   W                E   
|-----------------------|-------------------|----------------------|
|-----------------------|-------------------|----------------------|
|*----------------------|-------------------|----------------------|
|*----------------------|-------------------|----------------------|
|-----------------------|-------------------|----------------------|
|-----------------------|-------------------|----------------------|


  W                   W                E     W                   
-------------------|----------------------|--------------------||
-------------------|----------------------|--------------------||
-------------------|----------------------|-------------------*||
-------------------|----------------------|-------------------*||
-------------------|----------------------|--------------------||
-------------------|----------------------|--------------------||


  W                   S S S S S S S S S S S S S S S S  
-------------------|----------------------------------|
-------------------|----------------------------------|
-------------------|----------------------------------|
-------------------|--3-3-3-3-3-3-3-3-3-3-3-3-3-3-3-3-|
-------------------|--1-1-1-1-1-1-1-1-1-1-1-1-1-1-1-1-|
-------------------|----------------------------------|


  S S S S S S S S S S S S S S S S    S S S S S S S S S S S S S S S S  
----------------------------------|----------------------------------|
----------------------------------|----------------------------------|
----------------------------------|----------------------------------|
--3-3-3-3-3-3-3-3-3-3-3-3-3-3-3-3-|--5-5-5-5-5-5-5-5-5-5-5-5-5-5-5-5-|
--1-1-1-1-1-1-1-1-1-1-1-1-1-1-1-1-|--3-3-3-3-3-3-3-3-3-3-3-3-3-3-3-3-|
----------------------------------|----------------------------------|


                                PM                                           
  S  S  S S  S  S S  S  S S  S  S   Q       S S S S S S S S S S S S S S S S  
-----------------------------------------|----------------------------------|
-----------------------------------------|----------------------------------|
-----------------------------------------|----------------------------------|
--0-15-17-0-14-15-0-12-14-0-10--0--10----|--3-3-3-3-3-3-3-3-3-3-3-3-3-3-3---|
--------------------------------0--10----|--1-1-1-1-1-1-1-1-1-1-1-1-1-1-1-0-|
-------------------------------(0)--8----|----------------------------------|


  S S S S S S S S S S S S S S S S    S S S S S S S S S S S S S S S S  
----------------------------------|----------------------------------|
----------------------------------|----------------------------------|
----------------------------------|----------------------------------|
----------------------------------|--2-2-2-2-2-2-2-2-2-2-2-2-2-2-2-2-|
--5-5-5-5-5-5-5-5-5-5-5-5-5-5-5-5-|--0-0-0-0-0-0-0-0-0-0-0-0-0-0-0-0-|
--3-3-3-3-3-3-3-3-3-3-3-3-3-3-3-3-|----------------------------------|


                                                         PM PM  
  S S S S S S S S S S S  S S S S S      Q    Q     Q     E  E   
-----------------------------------||--------------------------|
-----------------------------------||---3----------------------|
-----------------------------------||*--2----------------------|
--2-2-2-2-2-2-2-2-2-2--------------||*--0----------------------|
--0-0-0-0-0-0-0-0-0-0-0h-1-0-------||---0----------------3--2--|
-----------------------------3-1-0-||--------5~----4~----1--0--|


                                              PM PM  
  Q     E  E  E  E  Q        Q    Q     Q     E  E   
--------------------------|-------------------------|
--3-----------------------|--3----------------------|
--2-----------------------|--2----------------------|
--0-----------------------|--0----------------------|
--0--------------5--------|--0----------------3--2--|
-------/5--7--8-----7~----|-------5~----4~----1--0--|


  Q    E  E  E  E  Q          W                 
--------------------------||-------------------|
--3-----------------------||--3----------------|
--2----------------------*||--2----------------|
--0----------------------*||--0----------------|
--0----------8--7---------||--0----------------|
-------5--6--------4~-----||-------------------|


  PM PM PM  PMPM PM PM PM PM  PMPM PM PM PM PM  PMPM PM  
  S  S  S   S S  S  S  S  S   S S  S  S  S  S   S S  S   
--------------------------------------------------------|
--------------------------------------------------------|
-----------10----------------10----------------10-------|
--0--6--7-----7--6--0--6--7-----7--6--0--6--7-----7--6--|
--------------------------------------------------------|
--------------------------------------------------------|


  PM PM PM PM PM PM PM PM PM PM PM PM PM PM PM PM  
  S  S  S  S  S  S  S  S  S  S  S  S  S  S  S  S   
--------------------------------------------------|
--------------------------------------------------|
--------7--9--7-----------7--9--7-----------7--9--|
--0--6-----------6--0--6-----------6--0--6--------|
--------------------------------------------------|
--------------------------------------------------|


  PM PM PM  PMPM PM PM PM PM  PMPM PM PM PM PM  PMPM PM  
  S  S  S   S S  S  S  S  S   S S  S  S  S  S   S S  S   
--------------------------------------------------------|
--------------------------------------------------------|
-----------12----------------12----------------12-------|
--0--7--8-----8--7--0--7--8-----8--7--0--7--8-----8--7--|
--------------------------------------------------------|
--------------------------------------------------------|


  PM PM  PM PM PMPM PM PM  PM PM PMPM PM PM  PM PM 
  S  S   S  S  S S  S  S   S  S  S S  S  S   S  S  
--------------------------------------------------|
--------------------------------------------------|
--------10-13-10----------10-13-10----------10-13-|
--0--9-----------9--0--9-----------9--0--9--------|
--------------------------------------------------|
--------------------------------------------------|


  PM PM  PM PM PMPM PM PM  PM PM PMPM PM PM  PM PM PMPM  
  S  S   S  S  S S  S  S   S  S  S S  S  S   S  S  S S   
--------------------------------------------------------|
--------------------------------------------------------|
--------10-12-10----------10-12-10----------10-12-10----|
--0--8-----------8--0--8-----------8--0--8-----------8--|
--------------------------------------------------------|
--------------------------------------------------------|


  PM PM PM  PMPM PM PM  PMPM PM PM PM PM PM PM PM  
  S  S  S   S S  S  S   S S  S  S  S  S  S  S  S   
--------------------------------------------------|
--------------------------------------------------|
--------7--10-7-----7--10-------7--9--7-----7--9--|
--0--6-----------6--------0--6-----------6--------|
--------------------------------------------------|
--------------------------------------------------|


  S S S  S S S S S S  S S S S S E      S S S S S S S S S S S S S S E    
------------------------------------|----------------------------------|
------------------------------------|----------------------------------|
--------10-----------10-------------|------7-9-7-------7-9-7-------7~--|
--0-6-7----7-6-0-6-7----7-6-0-6-7~--|--0-6-------6-0-6-------6-0-6-----|
------------------------------------|----------------------------------|
------------------------------------|----------------------------------|


  S S S  S S S S S S  S S S S S E      S S  S  S  S S S S  S  S  S S S S  E    
------------------------------------|-----------------------------------------|
------------------------------------|-----------------------------------------|
--------12-----------12-------------|------10-13-10-------10-13-10-------10~--|
--0-7-8----8-7-0-7-8----8-7-0-7-8~--|--0-9----------9-0-9----------9-0-9------|
------------------------------------|-----------------------------------------|
------------------------------------|-----------------------------------------|


  S S  S  S  S S S S  S  S  S S S S  E      S S S  S S S S  S S S S S S S S S  
-----------------------------------------|------------------------------------|
-----------------------------------------|------------------------------------|
------10-12-10-------10-12-10-------10~--|------6-10-6---6-10-----6-9-6---6-9-|
--0-8----------8-0-8----------8-0-8------|--0-7--------7------0-7-------7-----|
-----------------------------------------|------------------------------------|
-----------------------------------------|------------------------------------|


  S S  S S S S S S S S S  S S S  S S    S S  S S S S S S S S S  S S S  S S  
-------------------------------------|-------------------------------------|
-------------------------------------|-------------------------------------|
----7-10---7-9---7-9---7-10---7-10-9-|----7-10---7-9---7-9---7-10---7-10-9-|
--8------8-----8-----8------8--------|--8------8-----8-----8------8--------|
-------------------------------------|-------------------------------------|
-------------------------------------|-------------------------------------|


   S S  S  S S  S  S S  S  S S  S  S S  S  S  
---------------------------------------------|
---------------------------------------------|
-----9-12----9-10----9-10----9-12----9-12-10-|
--10------10------10------10------10---------|
---------------------------------------------|
---------------------------------------------|


                               PM                                              
  S  S  S S  S  S S  S  S S S  S   Q       S S  S S S S S S S S S  S S S  S S  
----------------------------------------|-------------------------------------|
----------------------------------------|-------------------------------------|
----14-15---12-14---10-12---9-----------|----7-10---7-9---7-9---7-10---7-10-9-|
--0-------0-------0-------0----0--10----|--8------8-----8-----8------8--------|
-------------------------------0--10----|-------------------------------------|
------------------------------(0)--8----|-------------------------------------|


  S S  S S S S S S S S  S S S  S S S    S S  S S S S S S S S S  S S S  S S  
-------------------------------------|-------------------------------------|
-------------------------------------|-------------------------------------|
----7-10---7-9---7-9---10---7-10-9-7-|----7-10---7-9---7-9---7-10---7-10-9-|
--6------6-----6---------------------|--7------7-----7-----7------7--------|
---------------------7----7----------|-------------------------------------|
-------------------------------------|-------------------------------------|


                        |--3-| |--3-| |-3-|  
  S S  S S S S S S  S S S  S S S  S S S S S  
--------------------------------------------|
--------------------------------------------|
----7-10---7-9---7-10---9-10-9-7------------|
--7------7-----7------7----------10-8-7-----|
----------------------------------------8-7-|
--------------------------------------------|


   \1/    \1/             \1/                 \2/                    
   Q      E    E   Q      E     E      Q      E   E   E   E   Q      
-----------------------------------|--------------------------------|
-----------------------------------|-------------12--13--15--12~----|
---------13b---L--13~--------------|---------14---------------------|
--12~--------------------14br---L--|--12~---------------------------|
-----------------------------------|--------------------------------|
-----------------------------------|--------------------------------|


   \1/    \1/                                  \2/                       
   Q      E    E   Q         E   E      Q      E   E      E   E   Q      
------------------------------------|-----------------12g12--12---------|
------------------------------------|-----------------------------------|
---------13b---L--13~---------------|---------14--15-------------13~----|
--12~--------------------14g14--14--|--12~------------------------------|
------------------------------------|-----------------------------------|
------------------------------------|-----------------------------------|


   \1/    \1/             \1/                 \2/                    
   Q      E    E   Q      E     E      Q      E   E   E   E   Q      
-----------------------------------|--------------------------------|
-----------------------------------|-------------12--13--15--12~----|
---------13b---L--13~--------------|---------14---------------------|
--12~--------------------14br---L--|--12~---------------------------|
-----------------------------------|--------------------------------|
-----------------------------------|--------------------------------|


   \1/    \1/                                  \1/                        
   Q      E    E   Q         E   E      Q      E    E   Q         E   E   
------------------------------------|------------------------------------|
------------------------------------|------------------------------------|
---------13b---L--13~---------------|---------13b---L--13~---------------|
--12~--------------------14g14--12--|--14~--------------------14g14--14--|
------------------------------------|------------------------------------|
------------------------------------|------------------------------------|


          \2/                       \1/    \1/                        
   Q      E   E   E   E   Q         Q      E    E   Q         E   E   
--------------------------------|------------------------------------|
-------------12--13--15--12~----|------------------------------------|
---------14---------------------|---------13b---L--13~---------------|
--12~---------------------------|--12~--------------------14g14--14--|
--------------------------------|------------------------------------|
--------------------------------|------------------------------------|


  W                   W                  
-------------------|-------------------||
-------------------|-------------------||
-------------------|-------------------||
-------------------|-------------------||
-------------------|-------------------||
-------------------|-------------------||

**********************************************************
**********************************************************
**********************************************************

Guitar 4

W                   W                   W                 
E||-------------------|-------------------|-------------------|
B||-------------------|-------------------|-------------------|
G||-------------------|-------------------|-------------------|
D||-------------------|-------------------|-------------------|
A||-------------------|-------------------|-------------------|
E||-------------------|-------------------|-------------------|


  W                   W                   W                   W                 
-------------------|-------------------|-------------------|-------------------|
-------------------|-------------------|-------------------|-------------------|
-------------------|-------------------|-------------------|-------------------|
-------------------|-------------------|-------------------|-------------------|
-------------------|-------------------|-------------------|-------------------|
-------------------|-------------------|-------------------|-------------------|


  W                   W                   W                   W                 
-------------------|-------------------|-------------------|-------------------|
-------------------|-------------------|-------------------|-------------------|
-------------------|-------------------|-------------------|-------------------|
-------------------|-------------------|-------------------|-------------------|
-------------------|-------------------|-------------------|-------------------|
-------------------|-------------------|-------------------|-------------------|


  W                   W                   W                   W                 
-------------------|-------------------|-------------------|-------------------|
-------------------|-------------------|-------------------|-------------------|
-------------------|-------------------|-------------------|-------------------|
-------------------|-------------------|-------------------|-------------------|
-------------------|-------------------|-------------------|-------------------|
-------------------|-------------------|-------------------|-------------------|


  W                   W                   W                   W                 
-------------------|-------------------|-------------------|-------------------|
-------------------|-------------------|-------------------|-------------------|
-------------------|-------------------|-------------------|-------------------|
-------------------|-------------------|-------------------|-------------------|
-------------------|-------------------|-------------------|-------------------|
-------------------|-------------------|-------------------|-------------------|


  W                   W                   W                   W                 
-------------------|-------------------|-------------------|-------------------|
-------------------|-------------------|-------------------|-------------------|
-------------------|-------------------|-------------------|-------------------|
-------------------|-------------------|-------------------|-------------------|
-------------------|-------------------|-------------------|-------------------|
-------------------|-------------------|-------------------|-------------------|


  W                   W                   W                   W                 
-------------------|-------------------|-------------------|-------------------|
-------------------|-------------------|-------------------|-------------------|
-------------------|-------------------|-------------------|-------------------|
-------------------|-------------------|-------------------|-------------------|
-------------------|-------------------|-------------------|-------------------|
-------------------|-------------------|-------------------|-------------------|


  W                   W                   W                   W                 
-------------------|-------------------|-------------------|-------------------|
-------------------|-------------------|-------------------|-------------------|
-------------------|-------------------|-------------------|-------------------|
-------------------|-------------------|-------------------|-------------------|
-------------------|-------------------|-------------------|-------------------|
-------------------|-------------------|-------------------|-------------------|


  W                   W                   W                   W                 
-------------------|-------------------|-------------------|-------------------|
-------------------|-------------------|-------------------|-------------------|
-------------------|-------------------|-------------------|-------------------|
-------------------|-------------------|-------------------|-------------------|
-------------------|-------------------|-------------------|-------------------|
-------------------|-------------------|-------------------|-------------------|


  W                   W                   W                   W                 
-------------------|-------------------|-------------------|-------------------|
-------------------|-------------------|-------------------|-------------------|
-------------------|-------------------|-------------------|-------------------|
-------------------|-------------------|-------------------|-------------------|
-------------------|-------------------|-------------------|-------------------|
-------------------|-------------------|-------------------|-------------------|


    W                E     W                   W                E   
|-----------------------|-------------------|----------------------|
|-----------------------|-------------------|----------------------|
|*----------------------|-------------------|----------------------|
|*----------------------|-------------------|----------------------|
|-----------------------|-------------------|----------------------|
|-----------------------|-------------------|----------------------|


  W                   W                E     W                   
-------------------|----------------------|--------------------||
-------------------|----------------------|--------------------||
-------------------|----------------------|-------------------*||
-------------------|----------------------|-------------------*||
-------------------|----------------------|--------------------||
-------------------|----------------------|--------------------||


  W                   S S S S S S S S S S S S S S S S  
-------------------|----------------------------------|
-------------------|----------------------------------|
-------------------|----------------------------------|
-------------------|--3-3-3-3-3-3-3-3-3-3-3-3-3-3-3-3-|
-------------------|--1-1-1-1-1-1-1-1-1-1-1-1-1-1-1-1-|
-------------------|----------------------------------|


  S S S S S S S S S S S S S S S S    S S S S S S S S S S S S S S S S  
----------------------------------|----------------------------------|
----------------------------------|----------------------------------|
----------------------------------|----------------------------------|
--3-3-3-3-3-3-3-3-3-3-3-3-3-3-3-3-|--5-5-5-5-5-5-5-5-5-5-5-5-5-5-5-5-|
--1-1-1-1-1-1-1-1-1-1-1-1-1-1-1-1-|--3-3-3-3-3-3-3-3-3-3-3-3-3-3-3-3-|
----------------------------------|----------------------------------|


                                PM                                           
  S  S  S S  S  S S  S  S S  S  S   Q       S S S S S S S S S S S S S S S S  
-----------------------------------------|----------------------------------|
-----------------------------------------|----------------------------------|
-----------------------------------------|----------------------------------|
--0-15-17-0-14-15-0-12-14-0-10--0--10----|--3-3-3-3-3-3-3-3-3-3-3-3-3-3-3---|
--------------------------------0--10----|--1-1-1-1-1-1-1-1-1-1-1-1-1-1-1-0-|
-------------------------------(0)--8----|----------------------------------|


  S S S S S S S S S S S S S S S S    S S S S S S S S S S S S S S S S  
----------------------------------|----------------------------------|
----------------------------------|----------------------------------|
----------------------------------|----------------------------------|
----------------------------------|--2-2-2-2-2-2-2-2-2-2-2-2-2-2-2-2-|
--5-5-5-5-5-5-5-5-5-5-5-5-5-5-5-5-|--0-0-0-0-0-0-0-0-0-0-0-0-0-0-0-0-|
--3-3-3-3-3-3-3-3-3-3-3-3-3-3-3-3-|----------------------------------|


                                                         PM PM  
  S S S S S S S S S S S  S S S S S      Q    Q     Q     E  E   
-----------------------------------||--------------------------|
-----------------------------------||---3----------------------|
-----------------------------------||*--2----------------------|
--2-2-2-2-2-2-2-2-2-2--------------||*--0----------------------|
--0-0-0-0-0-0-0-0-0-0-0h-1-0-------||---0----------------3--2--|
-----------------------------3-1-0-||--------5~----4~----1--0--|


                                              PM PM  
  Q     E  E  E  E  Q        Q    Q     Q     E  E   
--------------------------|-------------------------|
--3-----------------------|--3----------------------|
--2-----------------------|--2----------------------|
--0-----------------------|--0----------------------|
--0--------------5--------|--0----------------3--2--|
-------/5--7--8-----7~----|-------5~----4~----1--0--|


  Q    E  E  E  E  Q          W                 
--------------------------||-------------------|
--3-----------------------||--3----------------|
--2----------------------*||--2----------------|
--0----------------------*||--0----------------|
--0----------8--7---------||--0----------------|
-------5--6--------4~-----||-------------------|


  PM PM PM  PMPM PM PM PM PM  PMPM PM PM PM PM  PMPM PM  
  S  S  S   S S  S  S  S  S   S S  S  S  S  S   S S  S   
--------------------------------------------------------|
--------------------------------------------------------|
-----------10----------------10----------------10-------|
--0--6--7-----7--6--0--6--7-----7--6--0--6--7-----7--6--|
--------------------------------------------------------|
--------------------------------------------------------|


  PM PM PM PM PM PM PM PM PM PM PM PM PM PM PM PM  
  S  S  S  S  S  S  S  S  S  S  S  S  S  S  S  S   
--------------------------------------------------|
--------------------------------------------------|
--------7--9--7-----------7--9--7-----------7--9--|
--0--6-----------6--0--6-----------6--0--6--------|
--------------------------------------------------|
--------------------------------------------------|


  PM PM PM  PMPM PM PM PM PM  PMPM PM PM PM PM  PMPM PM  
  S  S  S   S S  S  S  S  S   S S  S  S  S  S   S S  S   
--------------------------------------------------------|
--------------------------------------------------------|
-----------12----------------12----------------12-------|
--0--7--8-----8--7--0--7--8-----8--7--0--7--8-----8--7--|
--------------------------------------------------------|
--------------------------------------------------------|


  PM PM  PM PM PMPM PM PM  PM PM PMPM PM PM  PM PM 
  S  S   S  S  S S  S  S   S  S  S S  S  S   S  S  
--------------------------------------------------|
--------------------------------------------------|
--------10-13-10----------10-13-10----------10-13-|
--0--9-----------9--0--9-----------9--0--9--------|
--------------------------------------------------|
--------------------------------------------------|


  PM PM  PM PM PMPM PM PM  PM PM PMPM PM PM  PM PM PMPM  
  S  S   S  S  S S  S  S   S  S  S S  S  S   S  S  S S   
--------------------------------------------------------|
--------------------------------------------------------|
--------10-12-10----------10-12-10----------10-12-10----|
--0--8-----------8--0--8-----------8--0--8-----------8--|
--------------------------------------------------------|
--------------------------------------------------------|


  PM PM PM  PMPM PM PM  PMPM PM PM PM PM PM PM PM  
  S  S  S   S S  S  S   S S  S  S  S  S  S  S  S   
--------------------------------------------------|
--------------------------------------------------|
--------7--10-7-----7--10-------7--9--7-----7--9--|
--0--6-----------6--------0--6-----------6--------|
--------------------------------------------------|
--------------------------------------------------|


  S S S  S S S S S S  S S S S S E      S S S S S S S S S S S S S S E    
------------------------------------|----------------------------------|
------------------------------------|----------------------------------|
--------10-----------10-------------|------7-9-7-------7-9-7-------7~--|
--0-6-7----7-6-0-6-7----7-6-0-6-7~--|--0-6-------6-0-6-------6-0-6-----|
------------------------------------|----------------------------------|
------------------------------------|----------------------------------|


  S S S  S S S S S S  S S S S S E      S S  S  S  S S S S  S  S  S S S S  E    
------------------------------------|-----------------------------------------|
------------------------------------|-----------------------------------------|
--------12-----------12-------------|------10-13-10-------10-13-10-------10~--|
--0-7-8----8-7-0-7-8----8-7-0-7-8~--|--0-9----------9-0-9----------9-0-9------|
------------------------------------|-----------------------------------------|
------------------------------------|-----------------------------------------|


  S S  S  S  S S S S  S  S  S S S S  E      S S S  S S S S  S S S S S S S S S  
-----------------------------------------|------------------------------------|
-----------------------------------------|------------------------------------|
------10-12-10-------10-12-10-------10~--|------6-10-6---6-10-----6-9-6---6-9-|
--0-8----------8-0-8----------8-0-8------|--0-7--------7------0-7-------7-----|
-----------------------------------------|------------------------------------|
-----------------------------------------|------------------------------------|


  S S  S S S S S S S S S  S S S  S S    S S  S S S S S S S S S  S S S  S S  
-------------------------------------|-------------------------------------|
-------------------------------------|-------------------------------------|
----7-10---7-9---7-9---7-10---7-10-9-|----7-10---7-9---7-9---7-10---7-10-9-|
--8------8-----8-----8------8--------|--8------8-----8-----8------8--------|
-------------------------------------|-------------------------------------|
-------------------------------------|-------------------------------------|


   S S  S  S S  S  S S  S  S S  S  S S  S  S  
---------------------------------------------|
---------------------------------------------|
-----9-12----9-10----9-10----9-12----9-12-10-|
--10------10------10------10------10---------|
---------------------------------------------|
---------------------------------------------|


                               PM                                              
  S  S  S S  S  S S  S  S S S  S   Q       S S  S S S S S S S S S  S S S  S S  
----------------------------------------|-------------------------------------|
----------------------------------------|-------------------------------------|
----14-15---12-14---10-12---9-----------|----7-10---7-9---7-9---7-10---7-10-9-|
--0-------0-------0-------0----0--10----|--8------8-----8-----8------8--------|
-------------------------------0--10----|-------------------------------------|
------------------------------(0)--8----|-------------------------------------|


  S S  S S S S S S S S  S S S  S S S    S S  S S S S S S S S S  S S S  S S  
-------------------------------------|-------------------------------------|
-------------------------------------|-------------------------------------|
----7-10---7-9---7-9---10---7-10-9-7-|----7-10---7-9---7-9---7-10---7-10-9-|
--6------6-----6---------------------|--7------7-----7-----7------7--------|
---------------------7----7----------|-------------------------------------|
-------------------------------------|-------------------------------------|


                        |--3-| |--3-| |-3-|  
  S S  S S S S S S  S S S  S S S  S S S S S  
--------------------------------------------|
--------------------------------------------|
----7-10---7-9---7-10---9-10-9-7------------|
--7------7-----7------7----------10-8-7-----|
----------------------------------------8-7-|
--------------------------------------------|


   \1/    \1/             \1/                 \2/                    
   Q      E    E   Q      E     E      Q      E   E   E   E   Q      
-----------------------------------|--------------------------------|
-----------------------------------|-------------12--13--15--12~----|
---------13b---L--13~--------------|---------14---------------------|
--12~--------------------14br---L--|--12~---------------------------|
-----------------------------------|--------------------------------|
-----------------------------------|--------------------------------|


   \1/    \1/                               \2/                    
   Q      E    E   Q      E   E      Q      E   E   E   E   Q      
---------------------------------|------------------L--12---------|
---------------------------------|--------------------------------|
---------13b---L--13~------------|---------14--15----------13~----|
--12~---------------------L--14--|--12~---------------------------|
---------------------------------|--------------------------------|
---------------------------------|--------------------------------|


   \1/    \1/             \1/                 \2/                    
   Q      E    E   Q      E     E      Q      E   E   E   E   Q      
-----------------------------------|--------------------------------|
-----------------------------------|-------------12--13--15--12~----|
---------13b---L--13~--------------|---------14---------------------|
--12~--------------------14br---L--|--12~---------------------------|
-----------------------------------|--------------------------------|
-----------------------------------|--------------------------------|


   \1/    \1/                               \1/                     
   Q      E    E   Q      E   E      Q      E    E   Q      E   E   
---------------------------------|---------------------------------|
---------------------------------|---------------------------------|
---------13b---L--13~------------|---------13b---L--13~------------|
--12~---------------------L--12--|--14~---------------------L--14--|
---------------------------------|---------------------------------|
---------------------------------|---------------------------------|


          \2/                       \1/    \1/                     
   Q      E   E   E   E   Q         Q      E    E   Q      E   E   
--------------------------------|---------------------------------|
-------------12--13--15--12~----|---------------------------------|
---------14---------------------|---------13b---L--13~------------|
--12~---------------------------|--12~---------------------L--14--|
--------------------------------|---------------------------------|
--------------------------------|---------------------------------|


  W                   W                  
-------------------|-------------------||
-------------------|-------------------||
-------------------|-------------------||
-------------------|-------------------||
-------------------|-------------------||
-------------------|-------------------||




Duration Legend
---------------
W - whole
H - half
Q - quarter
E - 8th
S - 16th
T - 32nd
X - 64th
. - note dotted
|-n-|  - n-tuplets


Tablature Legend
----------------
L - tied note
x - dead note
g - grace note
(n) - ghost note
> - accentuded note
NH - natural harmonic
AH - artificial harmonic
TH - tapped harmonic
SH - semi harmonic
PH - pitch harmonic
h - hammer on
p - pull off
b - bend
br - bendRelease
pb - preBend
pbr - preBendRelease
brb - bendReleaseBend
\n/ - tremolo bar dip
\n - tremolo bar dive
-/n - tremolo bar Release up
/n\ - tremolo bar inverted dip
/n - tremolo bar return
-\n - tremolo bar Release down
S - shift slide
s - legato slide
/ -  slide into from below or out of upwards
\ -  slide into from above or out of downwards
~ - vibrato
W - wide vibrato
tr - trill
TP - tremolo picking
T - tapping
S - slap
P - pop
< - fade in
^ - brush up
v - brush down

            
            
Suggest correction
Creating personal tab
Creating personal tab
You can edit any tab online and save it as your Personal.

You can edit, replace or remove any tab part or add personal notes – all changes will be seen only by you.

Personal tabs can be accessed anytime from any device, even offline.
Learn more »
Give kudos to tab author, rate the tab!
1 2 3 4 5
comments
print report bad tab
11 comments total. Showing first comments.
0 reply
spencer Cr 507 Jun 26, 2007 08:35 AM

it's kinda long dude, and what's the time signature is it 4/4?

0 reply
Slayer2 72 Jun 26, 2007 11:45 AM

diggin this TAB

good job, a great DT song

0 reply
Cthulhu_Calls 45 Aug 13, 2007 11:09 AM

wheres the solo?

guest
You may want to rate the tab now too:
select rating
Wanna post a correction for this tab? Suggest correction