Oops, an error
Loading. Please wait.

Lost Not Forgotten Tab

version 1
version 1

Whole song

Interactive

12,996 views 12 this week
2 commentsread comments
1 2 3 4 5
worth learning
x 5
add to favorites
launch autoscroll
font size
0
reset
how to read this tab
guitar tuner
Autoscroll
slow
fast
+/-
esc
set tempo
stop
Help us to improve Ultimate-Guitar.com Take our survey!
×
Difficulty
Tuning
advanced
D G C F A D
Title: Lost Not Forgotten
SubTitle: SICK PART!
Artist: Dream Theater
Album: A Dramatic Turn of Events
Copyright: © Kurai Management Inc.
Tabber: Kurai
Tempo = 127
John Petrucci

Legend
L - tied note
x - dead note
h - hammer on/pull off
b - bend
s - slide
~ - vibrato
g - ghost note
> - accentuated note
t - trill
M - palm mute
. - staccato
P - popping (bass)
S - slapping (bass)
+ - tapping
W - wide vibrato
< - fade in
w - whammy bar
= - tremolo picking
v - brush up
^ - brush down
V - pick stroke up
n - pick stroke down


D |-----------------------18---------------------------|
A |-----------------17----------19---------------------|
F |-----------15-------15-------------18---------------|
C |-----14-------14----------16-------------20----16---|
G |--------13----------------------17------------------|
D |--12----------------------------------18----14------|


-----------------------18----21----17---------------------------|
-----------------17----------------------18---------------------|
-----------15-------15----18----14-------------18---------------|
-----14-------14----------------------15-------------19----15---|
--------13----------------------------------16------------------|
--12----------------------------------------------17----13------|


----------------------------------------------------------|
----------------------------------------------------------|
-----------------------------------------------18-18-18---|
-----------14-14-14----------17-17-17---------------------|
--------------------------------------16-16-16------------|
--12-12-12----------15-15-15------------------------------|


-----------------------------------------------21-21-21---|
-----------17-17-17----------20-20-20---------------------|
--------------------------------------18-18-18------------|
--14-14-14----------17-17-17------------------------------|
----------------------------------------------------------|
----------------------------------------------------------|


--------18-21h18------------------------------------------|
-----20----------20---------------------------------------|
--21----------------21h18----------18-21h18----------18---|
--------------------------20----20----------20----20------|
-----------------------------22----------------22---------|
----------------------------------------------------------|


--------13-16h13------------------------------------------|
-----15----------15---------------------------------------|
--16----------------16h13----------13-16h13----------13---|
--------------------------15----15----------15----15------|
-----------------------------17----------------17---------|
----------------------------------------------------------|


--------------------12h15h18-----------------------------------------------------|
-----------12h15h18-------------------12h15h18-----------------------------------|
--12h15h18-------------------12h15h18-------------------12h15h18-----------------|
-----------------------------------------------12h15h18-------------------12h15h-|
-----------------------------------------------------------------12h15h18--------|
---------------------------------------------------------------------------------|


--------------|
--------------|
--------------|
18------------|
--------------|
---12h15h18---|


--------------------------------------------------------------------------------|
--------------------------------------------------------------------------------|
--------------------------------------------------------13-------15-------------|
--------------------12-------14-------------------14----------------------14----|
--------------13----------------------13----16----------------------------------|
--12----15----------------------------------------------------------------------|


------------------------------------------------16-------18---------|
------------15-------17-------------------17------------------------|
------15----------------------15----18------------------------------|
17------------------------------------------------------------------|
--------------------------------------------------------------------|
--------------------------------------------------------------------|


--19----17----------------------------------------------------------------------|
--------------18----------------------18----16----------------------------------|
--------------------19-------16-------------------16----------------------16----|
--------------------------------------------------------18-------15-------------|
--------------------------------------------------------------------------------|
--------------------------------------------------------------------------------|


--------------------------------------------------------------------|
--------------------------------------------------------------------|
14------------------------------------------------------------------|
------15----------------------15----13------------------------------|
------------17-------14-------------------14------------------------|
------------------------------------------------16-------13---------|


-----------------------18---------------------------|
-----------------17----------19---------------------|
-----------15-------15-------------18---------------|
-----14-------14----------16-------------20----16---|
--------13----------------------17------------------|
--12----------------------------------18----14------|


-----------------------18----21----17---------------------------|
-----------------17----------------------18---------------------|
-----------15-------15----18----14-------------18---------------|
-----14-------14----------------------15-------------19----15---|
--------13----------------------------------16------------------|
--12----------------------------------------------17----13------|


----------------------------------------------------------|
----------------------------------------------------------|
-----------------------------------------------18-18-18---|
-----------14-14-14----------17-17-17---------------------|
--------------------------------------16-16-16------------|
--12-12-12----------15-15-15------------------------------|


-----------------------------------------------21-21-21---|
-----------17-17-17----------20-20-20---------------------|
--------------------------------------18-18-18------------|
--14-14-14----------17-17-17------------------------------|
----------------------------------------------------------|
----------------------------------------------------------|


--------18-21h18------------------------------------------|
-----20----------20---------------------------------------|
--21----------------21h18----------18-21h18----------18---|
--------------------------20----20----------20----20------|
-----------------------------22----------------22---------|
----------------------------------------------------------|


--------13-16h13------------------------------------------|
-----15----------15---------------------------------------|
--16----------------16h13----------13-16h13----------13---|
--------------------------15----15----------15----15------|
-----------------------------17----------------17---------|
----------------------------------------------------------|


--------------------12h15h18-----------------------------------------------------|
-----------12h15h18-------------------12h15h18-----------------------------------|
--12h15h18-------------------12h15h18-------------------12h15h18-----------------|
-----------------------------------------------12h15h18-------------------12h15h-|
-----------------------------------------------------------------12h15h18--------|
---------------------------------------------------------------------------------|


--------------|
--------------|
--------------|
18------------|
--------------|
---12h15h18---|


--------------------------------------------------------------------------------|
--------------------------------------------------------------------------------|
--------------------------------------------------------13-------15-------------|
--------------------12-------14-------------------14----------------------14----|
--------------13----------------------13----16----------------------------------|
--12----15----------------------------------------------------------------------|


------------------------------------------------16-------18---------|
------------15-------17-------------------17------------------------|
------15----------------------15----18------------------------------|
17------------------------------------------------------------------|
--------------------------------------------------------------------|
--------------------------------------------------------------------|


--19----17----------------------------------------------------------------------|
--------------18----------------------18----16----------------------------------|
--------------------19-------16-------------------16----------------------16----|
--------------------------------------------------------18-------15-------------|
--------------------------------------------------------------------------------|
--------------------------------------------------------------------------------|


--------------------------------------------------------------------|
--------------------------------------------------------------------|
14------------------------------------------------------------------|
------15----------------------15----13------------------------------|
------------17-------14-------------------14------------------------|
------------------------------------------------16-------13---------|


----------------||
----------------||
----------------||
----------------||
----------------||
--16L18~--------||
Suggest correction
What's this?
You can suggest a correction to this tab. Community and Mods will review your correction and vote to approve or reject it.
comments
print report bad tab
2 comments total.
+1 reply
Esparko 1,590 wrote on September 26 2011, 03:29 am

Title is sort of misleading. Looks like this is the first crazy solo that comes in on the song. I was expecting a full song.

0 reply
eggmobile123 361 wrote on May 7 2016, 03:59 pm

Only the intro solo not the whole song like it is said. These last words are only here because I need to add at least 15 words

guest
You may want to rate the tab now too:
select rating
Please do not post tabs as comments. Select "correction" instead!