Oops, an error
Loading. Please wait.

Octavarium Tab

version 1
version 1

Whole song

Interactive

66,077 views 63 this week
20 commentsread comments
1 2 3 4 5
x 15
add to favorites
launch autoscroll
font size
0
reset
how to read this tab
guitar tuner
Autoscroll
slow
fast
+/-
esc
set tempo
stop
Help us to improve Ultimate-Guitar.com Take our survey!
×
Author
Difficulty
advanced
Band - Dream Theater
Song - Octavarium
Album - Octavarium (2005)
Tuning - E,A,D,G,B,E (Standard Tuning)


e|-------------------|-------------------|-------------------|
B|-------------------|-------------------|-------------------|
G|-------------------|-------------------|-------------------|
D|--3----------------|--3----------------|--3----------------|
A|--3----------------|--3----------------|--3----------------|
E|--1----------------|--1----------------|--1----------------|



e|-------------------|-------------------|-------------------|-------------------|
B|-------------------|-------------------|-------------------|-------------------|
G|--3----------------|-------------------|--6----------------|--7----------------|
D|--3----------------|--3----------------|--6----------------|--7----------------|
A|--1----------------|--3----------------|--4----------------|--5----------------|
E|-------------------|--1----------------|-------------------|-------------------|


                                           Fm
e|-------------------|------------------|--1----1--x-1-1--x-1-1-1-1-1-|
B|-------------------|------------------|--1----1--x-1-1--x-1-1-1-1-1-|
G|-------------------|------------------|--1----1--x-1-1--x-1-1-1-1-1-|
D|--3----------------|------------------|--3----3--x-3-3--x-3-3-3-3-3-|
A|--1----------------|------------------|--3----3--x-3-3--x-3-3-3-3-3-|
E|--1----------------|------------------|--1----1--x-1-1--x-1-1-1-1-1-|



e|--1----1--x-1-1--x-1-1-1-1-1-|--1----1--x-1-1--x-1-1-1-1-1-|
B|--1----1--x-1-1--x-1-1-1-1-1-|--1----1--x-1-1--x-1-1-1-1-1-|
G|--1----1--x-1-1--x-1-1-1-1-1-|--1----1--x-1-1--x-1-1-1-1-1-|
D|--3----3--x-3-3--x-3-3-3-3-3-|--3----3--x-3-3--x-3-3-3-3-3-|
A|--3----3--x-3-3--x-3-3-3-3-3-|--3----3--x-3-3--x-3-3-3-3-3-|
E|--1----1--x-1-1--x-1-1-1-1-1-|--1----1--x-1-1--x-1-1-1-1-1-|


                                  Cm
e|--1----1--x-1-1--x-1-1-1-1-1-|--3----3--x-3-3--x-3-3-3-3-3-|
B|--1----1--x-1-1--x-1-1-1-1-1-|--4----4--x-4-4--x-4-4-4-4-4-|
G|--1----1--x-1-1--x-1-1-1-1-1-|--5----5--x-5-5--x-5-5-5-5-5-|
D|--3----3--x-3-3--x-3-3-3-3-3-|--5----5--x-5-5--x-5-5-5-5-5-|
A|--3----3--x-3-3--x-3-3-3-3-3-|--3----3--x-3-3--x-3-3-3-3-3-|
E|--1----1--x-1-1--x-1-1-1-1-1-|-----------------------------|


    A#m                        Fm
e|--1----1--x-1-1--x-1-1----|--1----1--x-1-1--x-1-1--1-1-|
B|--2----2--x-2-2--x-2-2----|--1----1--x-1-1--x-1-1--1-1-|
G|--3----3--x-3-3--x-3-3----|--1----1--x-1-1--x-1-1--1-1-|
D|--3----3--x-3-3--x-3-3----|--3----3--x-3-3--x-3-3--3-3-|
A|--1----1--x-1-1--x-1-1----|--3----3--x-3-3--x-3-3--3-3-|
E|--------------------------|--1----1--x-1-1--x-1-1--1-1-|


    D#                            G#
e|-----------------------------|--4--x-x-4--x-4----x-4-4--4-4-|
B|--4----4--x-4-4--x-4-4-4-4-4-|--4--x-x-4--x-4----x-4-4--4-4-|
G|--3----3--x-3-3--x-3-3-3-3-3-|--5--x-x-5--x-5----x-5-5--5-5-|
D|--5----5--x-5-5--x-5-5-5-5-5-|--6--x-x-6--x-6-6--x-6-6--6-6-|
A|--6----6--x-6-6--x-6-6-6-6-1-|--6--x-x-6--x-6-6--x-6-6--6-6-|
E|----------x------x-----------|--4-----------4-4----4-4--4-4-|


    Edim                       Fm              G#
e|--------------------------|--8-----8---8--8--4----4--4-4-|
B|--8----8--x-8-8----8--8-8-|--9-----9---9--9--4----4--4-4-|
G|--6----6--x-6-6----6--6-6-|--10----10--10-10-5----5--5-5-|
D|--8----8--x-8-8----8--8-8-|--10----10--10-10-6----6--6-6-|
A|--7----7--x-7-7----7--7-7-|--8-----8---8--8--6----6--6-6-|
E|----------x---------------|------------------4----4--4-4-|


    Ddim                       Fdim
e|----------x-----------x---|--------------------------|
B|--6----6--x-6-6----6--x-6-|--9----9--x-9-9----9--x-9-|
G|--4----4--x-4-4----4--x-4-|--7----7--x-7-7----7--x-7-|
D|--6----6--x-6-6----6--x-6-|--9----9--x-9-9----9--x-9-|
A|--5----5--x-5-5----5--x-5-|--8----8--x-8-8----8--x-8-|
E|----------x-----------x---|----------------------x---|


    C
e|--8-----8---x-8--8-----8-----8--|--8-----------------|
B|--8-----8---x-8--8-----8---x-8--|--8-----------------|
G|--9-----9---x-9--9-----9---x-9--|--9-----------------|
D|--10----10--x-10-10----10--x-10-|--10----------------|
A|--10----10--x-10-10----10--x-10-|--10----------------|
E|--8-----8---x-8--8-----8-----8--|--8-----------------|



e|-------------------------------|-------------------------------|
B|---------9------8--------------|-------------------------------|
G|-----------------------10------|---------9--------------9------|
D|-----10-----10-----10------10--|----------------13-------------|
A|--8----------------------------|-----11-----11------11-----11--|
E|-------------------------------|--9----------------------------|



e|-------------------------------|--------------------------|
B|---------9------8--------------|--------------------------|
G|-----------------------10------|---------9----------------|
D|-----10-----10-----10------10--|----------------13--------|
A|--8----------------------------|-----11-----11------------|
E|-------------------------------|--9-----------------------|



e|-------------------------------|------------------------------|
B|---------9------8--------------|------------------------------|
G|-----------------------10------|---------9------8------9------|
D|-----10-----10-----10------10--|------------------------------|
A|--8----------------------------|-----11-----11-----11-----11--|
E|-------------------------------|--9---------------------------|



e|-------------------------------|--------7-----------------|
B|---------9------8--------------|--9-----------8-----6-----|
G|-----------------------10------|-----8-----8-----8-----8--|
D|-----10-----10-----10------10--|--------------------------|
A|--8----------------------------|--------------------------|
E|-------------------------------|--------------------------|



e|----------------------------|---------------------------|
B|--8-------------------------|------------------------8--|
G|----8-----------7-----8-----|--------------8-----10-----|
D|------8------8-----8-----8--|--------9------------------|
A|---------10-----------------|-----8-----8-----8---------|
E|----------------------------|--7------------------------|



e|--11---------8--10p8---8-11-10-8----|----------10----14/x------------------|
B|------11--8----------8-----------11-|--10-----------------10---8-7h8p7-----|
G|------------------------------------|------11--------11/x----7---------9-7-|
D|------------------------------------|--------------------------------------|
A|------------------------------------|--------------------------------------|
E|------------------------------------|--------------------------------------|



e|-----------------10------12--12--|--12/0------------0-----------|
B|---------10----------10----------|------------------------------|
G|--10---------10------------------|-------6-------6------6-------|
D|------9--------------------------|---------7---7----------6-----|
A|---------------------------------|-----------7--------7---------|
E|---------------------------------|------------------------------|



e|----------0-------0-------0-------|----------5-------9----12-9-----|
B|----7---7---7---7-----7-----7---7-|--------5---5-------10----------|
G|--9-----------7-----7---7-----6---|--6---6-------6-----------------|
D|------7---------------------------|----7-----------7---------------|
A|----------------------------------|--------------------------------|
E|----------------------------------|--------------------------------|



e|--0---0--------------------|--0-2-3---------2---0---2---0---|
B|----3----1-----3-----1-----|--------0---------0---0---0---0-|
G|------------0-----0-----0--|--------------------------------|
D|---------------------------|----------4---------------------|
A|---------------------------|-------------7------------------|
E|---------------------------|--------------------------------|



e|--1--------1--------|--------1-------1---------4-----|
B|--------------------|--2--4----2---2-------2-----2---|
G|--------------------|------------1-----1-----1-----1-|
D|--------------------|--------------------3-----------|
A|--------------------|--------------------------------|
E|--------------------|--------------------------------|



e|-----------------------10--|-------------------------|------------------|
B|--------6/-10-10-10-10-----|-------------7-----------|------------------|
G|-----7---------------------|--6--------6---6---------|------------------|
D|--8------------------------|----7--7-7---------------|------------------|
A|---------------------------|-------------------------|------------------|
E|---------------------------|-------------------------|------------------|



e|-------------------------------|-------------------------------|
B|---------9------8--------------|-------------------------------|
G|-----------------------10------|---------9--------------9------|
D|-----10-----10-----10------10--|----------------13-------------|
A|--8----------------------------|-----11-----11------11-----11--|
E|-------------------------------|--9----------------------------|



e|-------------------------------|--------7-----------------|
B|---------9------8--------------|--9-----------8-----6-----|
G|-----------------------10------|-----8-----8-----8-----8--|
D|-----10-----10-----10------10--|--------------------------|
A|--8----------------------------|--------------------------|
E|-------------------------------|--------------------------|



e|----------------------------|---------------------------|
B|--8-------------------------|------------------------8--|
G|----8-----------7-----8-----|--------------8-----10-----|
D|------8------8-----8-----8--|--------9------------------|
A|---------10-----------------|-----8-----8-----8---------|
E|----------------------------|--7------------------------|



e|----------------------------|----------------------------|
B|--8-------------------------|----------------------------|
G|----8-----------7-----8-----|--------------8-----10--12--|
D|------8------8-----8-----8--|--------9-------------------|
A|---------10-----------------|-----8-----8-----8----------|
E|----------------------------|--7-------------------------|



e|----------------------------|---------------------------|
B|--8-------------------------|------------------------8--|
G|----8-----------7-----8-----|--------------8-----10-----|
D|------8------8-----8-----8--|--------9------------------|
A|---------10-----------------|-----8-----8-----8---------|
E|----------------------------|--7------------------------|



e|--11---------8--10p8---8-11-10-8----|----------10----14/x------------------|
B|------11--8----------8-----------11-|--10-----------------10---8-7h8p7-----|
G|------------------------------------|------11--------11/x----7---------9-7-|
D|------------------------------------|--------------------------------------|
A|------------------------------------|--------------------------------------|
E|------------------------------------|--------------------------------------|



e|-----------------10------12--12--|-------------------------------|
B|---------10----------10----------|--5-------2-----------2--------|
G|--10---------10------------------|------2-----2---2-1-----1------|
D|------9--------------------------|----2---2-----2-----2-----2----|
A|---------------------------------|--4----------------------------|
E|---------------------------------|-------------------------------|



e|----------0-------0-------0-------|----------5-------9----12-9-----|
B|----7---7---7---7-----7-----7---7-|--------5---5-------10----------|
G|--9-----------7-----7---7-----6---|--6---6-------6-----------------|
D|------7---------------------------|----7-----------7---------------|
A|----------------------------------|--------------------------------|
E|----------------------------------|--------------------------------|



e|---------------------------|--0-2-3---------2---0---2---0---|
B|--5-7-8--------7-----5-----|--------0---------0---0---0---0-|
G|---------5--------------4--|--------------------------------|
D|------------5-----5--------|----------4---------------------|
A|---------------------------|-------------7------------------|
E|---------------------------|--------------------------------|



e|--1--------1--------|--------1-------1---------4-----|-------------------|
B|--------------------|--2--4----2---2-------2-----2---|-------------------|
G|--------------------|------------1-----1-----1-----1-|-------------------|
D|--------------------|--------------------3-----------|--3----------------|
A|--------------------|--------------------------------|--3----------------|
E|--------------------|--------------------------------|--1----------------|



e|---------------------|------------------------|------------------------|
B|---------------------|------------------------|------------------------|
G|---------------------|-------4-----------4----|-------4-----------4----|
D|------------6--------|------------------------|------------------------|
A|---------6--6--------|--2--------2-2--2-------|--2--------2-2--2-------|
E|--4------4--4--------|------------------------|------------------------|



e|------------------------|------------------------|------------------------|
B|------------------------|------------------------|------------------------|
G|-------4-----------4----|-------4-----------4----|-------4-----------4----|
D|------------------------|------------------------|------------------------|
A|--2--------2-2--2-------|--2--------2-2--2-------|--2--------2-2--2-------|
E|------------------------|------------------------|------------------------|



e|------------------------|-------------------------|-----------------------|
B|------------------------|-------------------------|-----------------------|
G|-------4-----------4----|-------4-----4-----2--4--|------------------4----|
D|------------------------|----------------4--------|-----------------------|
A|--2--------2-2--2-------|--2--------2-------------|--2~------2-2--2-------|
E|------------------------|-------------------------|-----------------------|



e|------------------------|------------------------|------------------------|
B|------------------------|------------------------|------------------------|
G|-------4-----------4----|-------3-----------3----|------------------------|
D|------------------------|------------------------|-------7-----------7----|
A|--2--------2-2--2-------|--1--------1-1--1-------|--0--------0-0--0-------|
E|------------------------|------------------------|------------------------|



e|-------------------|------------------|------------------|------------------|
B|-------------------|------------------|------------------|------------------|
G|-------------------|------------------|------------------|------------------|
D|-------------------|------------------|------------------|------------------|
A|-------------------|------------------|------------------|------------------|
E|--5~---------------|------------------|------------------|------------------|



e|------------------|------------------|------------------|------------------|
B|------------------|------------------|------------------|------------------|
G|------------------|------------------|------------------|------------------|
D|------------------|------------------|------------------|------------------|
A|------------------|------------------|------------------|------------------|
E|------------------|------------------|------------------|------------------|



e|------------------|------------------|------------------|------------------|
B|------------------|------------------|------------------|------------------|
G|------------------|------------------|------------------|------------------|
D|------------------|------------------|------------------|------------------|
A|------------------|------------------|------------------|------------------|
E|------------------|------------------|------------------|------------------|



e|------------------|------------0--------|----------4----5----|
B|------------------|------------0--------|--------------------|
G|------------------|------------2--------|--------------------|
D|------------------|-------2----2--------|--------------------|
A|------------------|--0------------------|--------------------|
E|------------------|---------------------|--------------------|



e|----------------------|--0-------------------|------------0--------|
B|------------3---------|------------3---------|------------0--------|
G|-------2---------2----|-------2---------2----|------------2--------|
D|--3-------------------|----------------------|-------2----2--------|
A|----------------------|----------------------|--0------------------|
E|----------------------|----------------------|---------------------|



e|----------4----5----|----------------------|--0-------------------|
B|--------------------|------------3---------|------------3---------|
G|--------------------|-------2---------2----|-------2---------2----|
D|--------------------|--3-------------------|----------------------|
A|--------------------|----------------------|----------------------|
E|--------------------|----------------------|----------------------|



e|------------0--------|----------4----5----|----------------------|
B|------------0--------|--------------------|------------3---------|
G|------------2--------|--------------------|-------2---------2----|
D|-------2----2--------|--------------------|--3-------------------|
A|--0------------------|--------------------|----------------------|
E|---------------------|--------------------|----------------------|



e|--0-------------------|------------0--------|----------4----5----|
B|------------3---------|------------0--------|--------------------|
G|-------2---------2----|------------2--------|--------------------|
D|----------------------|-------2----2--------|--------------------|
A|----------------------|--0------------------|--------------------|
E|----------------------|---------------------|--------------------|



e|----------------------|--0-------------------|------------0--------|
B|------------3---------|------------3---------|------------0--------|
G|-------2---------2----|-------2---------2----|------------2--------|
D|--3-------------------|----------------------|-------2----2--------|
A|----------------------|----------------------|--0------------------|
E|----------------------|----------------------|---------------------|



e|----------4----5----|----------------------|--0-------------------|
B|--------------------|------------3---------|------------3---------|
G|--------------------|-------2---------2----|-------2---------2----|
D|--------------------|--3-------------------|----------------------|
A|--------------------|----------------------|----------------------|
E|--------------------|----------------------|----------------------|



e|----------------------|--2-------------------|----------------------|
B|------------2---------|------------2---------|------------1---------|
G|-------2---------2----|-------2---------2----|-------2---------2----|
D|--4-------------------|----------------------|--3-------------------|
A|----------------------|----------------------|----------------------|
E|----------------------|----------------------|----------------------|



e|--0-------------------|--------------------------|--------------------------|
B|-------0--------------|--------------3-----------|--------------3-----------|
G|------------2---------|--------0--------0-----0--|--------0--------0-----0--|
D|-----------------3----|-----4-----4--------4-----|-----4-----4--------4-----|
A|----------------------|--5-----------------------|--5-----------------------|
E|----------------------|--------------------------|--------------------------|



e|--------------1-----------|--------------1-----------|--0----0-----0----------|
B|--------1--------1-----1--|--------1--------1-----1--|--0----0--0--0----0--0--|
G|-----2-----2--------2-----|-----2-----2--------2-----|--2----2--2--2----2--2--|
D|--3-----------------------|--3-----------------------|--2----2--2--2----2--2--|
A|--------------------------|--------------------------|--0----0-----0----------|
E|--------------------------|--------------------------|------------------------|



e|--0----0-----0----------|--0----0-----0----------|--0----0-----0----------|
B|--0----0--0--0----0--0--|--0----0--0--0----0--0--|--0----0--0--0----0--0--|
G|--2----2--2--2----2--2--|--2----2--2--2----2--2--|--2----2--2--2----2--2--|
D|--2----2--2--2----2--2--|--2----2--2--2----2--2--|--2----2--2--2----2--2--|
A|--0----0-----0----------|--0----0-----0----------|--0----0-----0----------|
E|------------------------|------------------------|------------------------|



e|--------------------------|--------------------------|
B|--------------3-----------|--------------3-----------|
G|--------0--------0-----0--|--------0--------0-----0--|
D|-----4-----4--------4-----|-----4-----4--------4-----|
A|--5-----------------------|--5-----------------------|
E|--------------------------|--------------------------|



e|--------------1-----------|--------------1-----------|--0----0-----0----------|
B|--------1--------1-----1--|--------1--------1-----1--|--0----0--0--0----0--0--|
G|-----2-----2--------2-----|-----2-----2--------2-----|--2----2--2--2----2--2--|
D|--3-----------------------|--3-----------------------|--2----2--2--2----2--2--|
A|--------------------------|--------------------------|--0----0-----0----------|
E|--------------------------|--------------------------|------------------------|



e|--0----0-----0----------|--0----0-----0----------|--0----0-----0----------|
B|--0----0--0--0----0--0--|--0----0--0--0----0--0--|--0----0--0--0----0--0--|
G|--2----2--2--2----2--2--|--2----2--2--2----2--2--|--2----2--2--2----2--2--|
D|--2----2--2--2----2--2--|--3----3--3--3----3--2--|--3----3--3--3----3--3--|
A|--0----0-----0----------|--0----0-----0----------|--0----0-----0----------|
E|------------------------|------------------------|------------------------|



e|--0----0-----0----------|--0----0-----0----------|--0----0-----0----------|
B|--0----0--0--0----0--0--|--0----0--0--0----0--0--|--3----3--3--3----3--3--|
G|--2----2--2--2----2--2--|--2----2--2--2----2--2--|--2----2--2--2----2--2--|
D|--4----4--4--4----4--4--|--4----4--4--4----4--4--|--0----0--0--0----0--0--|
A|--0----0-----0----------|--0----0-----0----------|--0----0-----0----------|
E|------------------------|------------------------|------------------------|



e|--0----0-----0----------|--0----0-----0----------|--0----0-----0----------|
B|--3----3--3--3----3--3--|--0----0--0--0----0--0--|--0----0--0--0----0--0--|
G|--2----2--2--2----2--2--|--2----2--2--2----2--2--|--2----2--2--2----2--2--|
D|--0----0--0--0----0--0--|--2----2--2--2----2--2--|--2----2--2--2----2--2--|
A|--0----0-----0----------|--0----0-----0----------|--0----0-----0----------|
E|------------------------|------------------------|------------------------|



e|--0----0-----0----------|--0----0-----0----------|--0----0-----0----------|
B|--0----0--0--0----0--0--|--0----0--0--0----0--0--|--0----0--0--0----0--0--|
G|--2----2--2--2----2--2--|--2----2--2--2----2--2--|--2----2--2--2----2--2--|
D|--3----3--3--3----3--2--|--3----3--3--3----3--3--|--4----4--4--4----4--4--|
A|--0----0-----0----------|--0----0-----0----------|--0----0-----0----------|
E|------------------------|------------------------|------------------------|



e|--0----0-----0----------|--------------------|--------------------|
B|--0----0--0--0----0--0--|--3-----------------|--7-----------------|
G|--2----2--2--2----2--2--|--2-----------------|-----7--------------|
D|--4----4--4--4----4--4--|--0--------------7--|--------------------|
A|--0----0-----0----------|--0-----------------|--------------------|
E|------------------------|--------------------|--------------------|



e|------------0--------|----------4----5----|----------------------|
B|------------0--------|--------------------|------------3---------|
G|------------2--------|--------------------|-------2---------2----|
D|-------2----2--------|--------------------|--3-------------------|
A|--0------------------|--------------------|----------------------|
E|---------------------|--------------------|----------------------|



e|--0-------------------|------------0--------|----------4----5----|
B|------------3---------|------------0--------|--------------------|
G|-------2---------2----|------------2--------|--------------------|
D|----------------------|-------2----2--------|--------------------|
A|----------------------|--0------------------|--------------------|
E|----------------------|---------------------|--------------------|



e|--0----------------|------------------|------------0--------|
B|--0----------------|------------------|------------0--------|
G|--2----------------|------------------|------------2--------|
D|--2----------------|------------------|-------2----2--------|
A|--0----------------|------------------|--0------------------|
E|-------------------|------------------|---------------------|



e|----------4----5----|----------------------|--0-------------------|
B|--------------------|------------3---------|------------3---------|
G|--------------------|-------2---------2----|-------2---------2----|
D|--------------------|--3-------------------|----------------------|
A|--------------------|----------------------|----------------------|
E|--------------------|----------------------|----------------------|



e|------------0--------|----------4----5----|----------------------|
B|------------0--------|--------------------|------------3---------|
G|------------2--------|--------------------|-------2---------2----|
D|-------2----2--------|--------------------|--3-------------------|
A|--0------------------|--------------------|----------------------|
E|---------------------|--------------------|----------------------|



e|--0-------------------|------------0--------|----------4----5----|
B|------------3---------|------------0--------|--------------------|
G|-------2---------2----|------------2--------|--------------------|
D|----------------------|-------2----2--------|--------------------|
A|----------------------|--0------------------|--------------------|
E|----------------------|---------------------|--------------------|



e|----------------------|--0-------------------|----------------------|
B|------------3---------|------------3---------|------------2---------|
G|-------2---------2----|-------2---------2----|-------2---------2----|
D|--3-------------------|----------------------|--4-------------------|
A|----------------------|----------------------|----------------------|
E|----------------------|----------------------|----------------------|



e|--2-------------------|----------------------|--0-------------------|
B|------------2---------|------------1---------|-------0--------------|
G|-------2---------2----|-------2---------2----|------------2---------|
D|----------------------|--3-------------------|-----------------3----|
A|----------------------|----------------------|----------------------|
E|----------------------|----------------------|----------------------|



e|-------------------|------------------|---------------3----|------1------------|
B|--3----------------|------------------|--1-----------------|------1------------|
G|--0----------------|------------------|--2-----------------|-------------------|
D|--4----------------|------------------|--3------------3----|-------------------|
A|--5----------------|------------------|--3-----------------|-------------------|
E|-------------------|------------------|--1-----------------|-------------------|



e|---------------0----|-------------------|---------------------|
B|--------------------|------0------------|---------------------|
G|--2-----------------|-------------------|--2---------------2--|
D|--2-----------------|-------------------|--2------------2-----|
A|--0-----------------|-------------------|--0------------------|
E|--------------------|-------------------|---------------------|



e|--0---------------------|-------------------|--------------------------|
B|-----0------------------|-------------------|--------------------------|
G|------------------------|-------------------|--------------2-----------|
D|------------------------|--3----------------|--------3--------3-----3--|
A|------------------------|--3----------------|-----3-----3--------3-----|
E|------------5--4--3--2--|--1----------------|--1-----------------------|



e|--------------------------|--------------------------|--------------------|
B|--------------------------|--------------------------|-----------2--------|
G|--------------4-----------|--------------4-----------|--2-----------------|
D|--------5-----------5-----|--------5-----------5-----|--2-----------------|
A|--5--5-----5-----5-----5--|--5--5-----5-----5-----5--|--0-----------------|
E|--3-----------------------|--3-----------------------|--------------------|



e|----------------------|--------------------|----------------------|
B|--0-------------------|-----------1--------|--0-------------------|
G|-------2--------------|--2-----------------|-------2--------------|
D|------------0----2----|--3-----------------|------------2----3----|
A|----------------------|--0-----------------|----------------------|
E|----------------------|--------------------|----------------------|



e|--------------------|----------------------|---------------------|
B|-----------2--------|--0-------------------|--0-------------0----|
G|--2-----------------|-------2--------------|--2--------2---------|
D|--4-----------------|------------0----2----|--3------------------|
A|--0-----------------|----------------------|--3------------------|
E|--------------------|----------------------|--1------------------|



e|------------0----1----|--------------------|----------------------|
B|--1----3--------------|-----------2--------|--0-------------------|
G|----------------------|--2-----------------|-------2--------------|
D|----------------------|--2-----------------|------------0----2----|
A|----------------------|--0-----------------|----------------------|
E|----------------------|--------------------|----------------------|



e|--------------------|----------------------|--------------------|
B|-----------1--------|--0-------------------|-----------2--------|
G|--2-----------------|-------2--------------|--2-----------------|
D|--3-----------------|------------2----3----|--4-----------------|
A|--0-----------------|----------------------|--0-----------------|
E|--------------------|----------------------|--------------------|



e|----------------------|-------------------|------------------|
B|--0-------------------|--3----------------|------------------|
G|-------2--------------|--2----------------|------------------|
D|------------0----2----|--0----------------|------------------|
A|----------------------|--0----------------|------------------|
E|----------------------|-------------------|------------------|



e|-------------------|------------------|-------------------|--------------------|
B|-------------------|------------------|-------------------|--------------------|
G|-------------------|------------------|-------------------|--------------------|
D|--2----------------|------------------|--2----------------|--9-----------------|
A|-------------------|------------------|-------------------|--------------------|
E|--0----------------|------------------|--0----------------|--7------------7/---|



e|-------------------|-------------------|-------------------|
B|-------------------|-------------------|-------------------|
G|-------------------|-------------------|-------------------|
D|--2----------------|--9----------------|--2----------------|
A|-------------------|-------------------|-------------------|
E|--0----------------|--7----------------|--0----------------|



e|------------------------|------------------------------|
B|------------------------|------------------------------|
G|------------------------|------------------------------|
D|------------------------|------------------------------|
A|--5---4---2-------------|----------7-7-7-7-----7-7-7-7-|
E|--------------5---4--2--|--0---0-----------0-0---------|



e|------------------------------|------------------------------|
B|------------------------------|------------------------------|
G|------------------------------|------------------------------|
D|------------------------------|------------------------------|
A|----------7-7-7-7-----7-7-7-7-|----------7-7-7-7-----7-7-7-7-|
E|--0---0-----------0-0---------|--0---0-----------0-0---------|



e|------------------------|------------------------------|
B|----------0-------0--0--|------------------------------|
G|------------------------|------------------------------|
D|------------------------|------------------------------|
A|--2---2-------2---------|----------7-7-7-7-----7-7-7-7-|
E|------------------------|--0---0-----------0-0---------|



e|------------------------|------------------------------|
B|------------------------|------------------------------|
G|------------------------|------------------------------|
D|------------------------|------------------------------|
A|--5---4---2-------------|----------7-7-7-7-----7-7-7-7-|
E|--------------5---4--2--|--0---0-----------0-0---------|



e|------------------------|------------------------|
B|------------------------|------------------------|
G|------------------------|------------------------|
D|------------------------|------------------------|
A|--5---4---2----------2--|--4---4---4---4---4--4--|
E|--------------5---4-----|------------------------|



e|----------------------------------|------------------------|
B|----------------------------------|------------------------|
G|----------------------------------|------------------------|
D|----------------------------------|------------------------|
A|--3-3-3-3-3-3-3-3-3-3-3-3-3-3-3-3-|--4---4---4---4---4--4--|
E|----------------------------------|------------------------|



e|----------------------------------|------------------------------|
B|----------------------------------|------------------------------|
G|----------------------------------|------------------------------|
D|----------------------------------|------------------------------|
A|----------------------------------|----------7-7-7-7-----7-7-7-7-|
E|--5-5-5-5-5-5-5-5-5-5-5-5-5-5-5-5-|--0---0-----------0-0---------|



e|------------------------|------------------------------|
B|------------------------|------------------------------|
G|------------------------|------------------------------|
D|------------------------|------------------------------|
A|--5---4---2-------------|----------7-7-7-7-----7-7-7-7-|
E|--------------5---4--2--|--0---0-----------0-0---------|



e|------------------------|------------------------------|
B|------------------------|------------------------------|
G|------------------------|------------------------------|
D|------------------------|------------------------------|
A|--5---4---2----------2--|----------7-7-7-7-----7-7-7-7-|
E|--------------5---4-----|--0---0-----------0-0---------|



e|------------------------|------------------------------|
B|------------------------|------------------------------|
G|------------------------|------------------------------|
D|------------------------|------------------------------|
A|--5---4---2-------------|----------7-7-7-7-----7-7-7-7-|
E|--------------5---4--2--|--0---0-----------0-0---------|



e|------------------------|------------------------|
B|------------------------|------------------------|
G|------------------------|------------------------|
D|------------------------|------------------------|
A|--5---4---2----------2--|--4---4---4---4---4--4--|
E|--------------5---4-----|------------------------|



e|----------------------------------|------------------------|
B|----------------------------------|------------------------|
G|----------------------------------|------------------------|
D|----------------------------------|------------------------|
A|--3-3-3-3-3-3-3-3-3-3-3-3-3-3-3-3-|--4---4---4---4---4--4--|
E|----------------------------------|------------------------|



e|----------------------------------|------------------------|
B|----------------------------------|------------------------|
G|----------------------------------|------------------------|
D|----------------------------------|------------------------|
A|----------------------------------|--4---4---4---4---4--4--|
E|--5-5-5-5-5-5-5-5-5-5-5-5-5-5-5-5-|------------------------|



e|----------------------------------|------------------------|
B|----------------------------------|------------------------|
G|----------------------------------|------------------------|
D|----------------------------------|------------------------|
A|--3-3-3-3-3-3-3-3-3-3-3-3-3-3-3-3-|--4---4---4---4---4--4--|
E|----------------------------------|------------------------|



e|----------------------------------|----------------|----------------|
B|----------------------------------|----------------|----------------|
G|----------------------------------|----------------|----------------|
D|----------------------------------|----------------|----------------|
A|----------------------------------|----------------|----------------|
E|--5-5-5-5-5-5-5-5-5-5-5-5-5-5-5-5-|--4---4---3--3--|--2---2---1--1--|



e|----------------------|------------------|----------------|----------------|
B|----------------------|------------------|----------------|----------------|
G|----------------------|------------------|----------------|----------------|
D|----------------------|------------------|----------------|----------------|
A|----------7-7-7-7-7-7-|----------7-7-7-7-|--4---4---3--3--|--2---2---1--1--|
E|--0---0---------------|--0---0-----------|----------------|----------------|



e|----------------------|------------------|--------------------|
B|----------------------|------------------|--------------------|
G|----------------------|------------------|--------------------|
D|----------7-7-7-7-7-7-|----------7-7-7-7-|--------------------|
A|--0---0---------------|--0---0-----------|--------------------|
E|----------------------|------------------|--4--4--4--3--3--3--|



e|--------------------------|--------------------|---------------------------|
B|--------------------------|--------------------|---------------------------|
G|--------------------------|--------------------|---------------------------|
D|--------------------------|--------------------|---------------------------|
A|--------------------------|--6--6--5--5--4--4--|--3---2---1----------------|
E|--2--2--2--1--1--1--0--0--|--------------------|--------------5---4--3--2--|



e|--------------------------|--------------------------|
B|--------------------------|--------------------------|
G|--------------------------|--------------------------|
D|--------------3-----3-----|--------------3-----3-----|
A|--------------------------|--------------------------|
E|--1-1-1-1-1-1----1-----1--|--1-1-1-1-1-1----1-----1--|



e|--------------------------|--------------------------|
B|--------------------------|--------------------------|
G|--------------------------|--------------------------|
D|--------------3-----3-----|--------------3-----3-----|
A|--------------------------|--------------------------|
E|--1-1-1-1-1-1----1-----1--|--1-1-1-1-1-1----1-----1--|



e|--------------------------|--------------------------|
B|--------------------------|--------------------------|
G|--------------------------|--------------------------|
D|--------------3-----3-----|--------------3-----3-----|
A|--------------------------|--------------------------|
E|--1-1-1-1-1-1----1-----1--|--1-1-1-1-1-1----1-----1--|



e|--------------------------|--------------------------|
B|--------------------------|--------------------------|
G|--------------------------|--------------------------|
D|--------------3-----3-----|--------------3-----3-----|
A|--------------------------|--------------------------|
E|--1-1-1-1-1-1----1-----1--|--1-1-1-1-1-1----1-----1--|



e|--------------------------|--------------------------|
B|--------------------------|--------------------------|
G|--------------------------|--------------------------|
D|--------------3-----3-----|--------------3-----3-----|
A|--------------------------|--------------------------|
E|--1-1-1-1-1-1----1-----1--|--1-1-1-1-1-1----1-----1--|



e|--------------------------|-------------------|--------------------------|
B|--------------------------|-------------------|--------------------------|
G|--------------------------|-------------------|--------------------------|
D|--------------3-----3-----|----------3---3--3-|--------------3-----3-----|
A|--------------------------|-------------------|--------------------------|
E|--1-1-1-1-1-1----1-----1--|--1---1------------|--1-1-1-1-1-1----1-----1--|



e|--------------------------|--------------------------|
B|--------------------------|--------------------------|
G|--------------------------|--------------------------|
D|--------------3-----3-----|--------------3-----3-----|
A|--------------------------|--------------------------|
E|--1-1-1-1-1-1----1-----1--|--1-1-1-1-1-1----1-----1--|



e|--------------------------|--------------------------|
B|--------------------------|--------------------------|
G|--------------------------|--------------------------|
D|--8-----8-----5-----------|--------------3-----3-----|
A|----8-----8-----6---6-----|--------------------------|
E|------6-----6-----6---6-3-|--1-1-1-1-1-1----1-----1--|



e|--------------------------|--------------------------|-------------------|
B|--------------------------|--------------------------|-------------------|
G|--------------------------|--------------------------|-------------------|
D|--------------3-----3-----|--------------3-----3-----|----------3---3--3-|
A|--------------------------|--------------------------|-------------------|
E|--1-1-1-1-1-1----1-----1--|--1-1-1-1-1-1----1-----1--|--1---1------------|



e|--------------------------|--------------------------|
B|--------------------------|--------------------------|
G|--------------------------|--------------------------|
D|--------------3-----3-----|--------------3-----3-----|
A|--------------------------|--------------------------|
E|--1-1-1-1-1-1----1-----1--|--1-1-1-1-1-1----1-----1--|



e|--------------------------|--------------------------|----------------|
B|--------------------------|--------------------------|----------------|
G|--------------------------|------------------3-----3-|----------3-----|
D|--------------3-----3-----|------3-----5---3-----5---|-------------3--|
A|--------------------------|----4-----6---4-----6-----|--1---1---------|
E|--1-1-1-1-1-1----1-----1--|--6-----8-----------------|----------------|



e|-----------------|-----------------|----------------|----------------|
B|-----------------|-----------------|----------------|----------------|
G|----------3------|-----------------|----------------|----------3-----|
D|-----------------|----------3------|----------3-----|-------------3--|
A|--1---1----------|-----------------|-------------3--|--1---1---------|
E|-----------------|--1---1----------|--1---1---------|----------------|



e|-----------------|-----------------|----------------|----------------|
B|-----------------|-----------------|----------------|----------------|
G|----------3------|-----------------|----------------|----------3-----|
D|-----------------|----------3------|----------3-----|-------------3--|
A|--1---1----------|-----------------|-------------3--|--1---1---------|
E|-----------------|--1---1----------|--1---1---------|----------------|



e|-----------------|-----------------|----------------|----------------|
B|-----------------|-----------------|----------------|----------------|
G|----------3------|-----------------|----------------|----------3-----|
D|-----------------|----------3------|----------3-----|-------------3--|
A|--1---1----------|-----------------|-------------3--|--1---1---------|
E|-----------------|--1---1----------|--1---1---------|----------------|



e|-----------------|-----------------|--------------------|--------------------|
B|-----------------|-----------------|--------------------|--------------------|
G|----------3------|-----------------|--------------------|--------------------|
D|-----------------|----------3------|----------5----5----|--------------3-----|
A|--1---1----------|-----------------|----------3----3----|-----------------3--|
E|-----------------|--1---1----------|--1---1-------------|--1-1-1-1-1-1-------|



e|--------------------|--------------------|------------------|------------------|
B|--------------------|--------------------|------------------|------------------|
G|--------------------|--------------------|------------------|------------------|
D|--------------3-----|--------------3-----|------------------|------------3-----|
A|-----------------3--|-----------------3--|--4---3-----------|---------------3--|
E|--1-1-1-1-1-1-------|--1-1-1-1-1-1-------|----------6---3---|--1-1--1--1-------|



e|------------------|------------------|---------------------|------------------|
B|------------------|------------------|---------------------|------------------|
G|------------------|------------------|---------------------|------------------|
D|------------3-----|------------3-----|-------------3-5-----|------------3-----|
A|---------------3--|---------------3--|--1-1--3--4----------|---------------3--|
E|--1-1--1--1-------|--1-1--1--1-------|------------------3--|--1-1--1--1-------|



e|------------------|------------------|------------------|------------------|
B|------------------|------------------|------------------|------------------|
G|------------------|------------------|------------------|------------------|
D|------------3-----|------------3-----|------------------|------------3-----|
A|---------------3--|---------------3--|--4---3-----------|---------------3--|
E|--1-1--1--1-------|--1-1--1--1-------|----------6---3---|--1-1--1--1-------|



e|------------------|------------------|------------------|------------------|
B|------------------|------------------|------------------|------------------|
G|------------------|------------------|------------------|------------------|
D|------------3-----|------------3-----|--------------5---|------------3-----|
A|---------------3--|---------------3--|------3---4-------|---------------3--|
E|--1-1--1--1-------|--1-1--1--1-------|--6---------------|--1-1--1--1-------|



e|------------------|------------------|--------------------------|
B|------------------|------------------|--------------------------|
G|------------------|------------------|--------------------------|
D|------------3-----|------------3-----|--------------------------|
A|---------------3--|---------------3--|--4-4-4-3-3-3-------------|
E|--1-1--1--1-------|--1-1--1--1-------|--------------6-6-6-3-3-3-|



e|------------------|------------------|------------------|
B|------------------|------------------|------------------|
G|------------------|------------------|------------------|
D|------------3-----|------------3-----|------------3-----|
A|---------------3--|---------------3--|---------------3--|
E|--1-1--1--1-------|--1-1--1--1-------|--1-1--1--1-------|



e|--------------------------|----------------|-----------------|-----------------|
B|--------------------------|----------------|-----------------|-----------------|
G|--------------------------|----------3-----|----------3------|-----------------|
D|--------------------5-5-5-|-------------3--|-----------------|----------3------|
A|--------3-3-3-4-4-4-------|--1---1---------|--1---1----------|-----------------|
E|--6-6-6-------------------|----------------|-----------------|--1---1----------|



e|----------------|----------------|-----------------|-----------------|
B|----------------|----------------|-----------------|-----------------|
G|----------------|----------3-----|----------3------|-----------------|
D|----------3-----|-------------3--|-----------------|----------3------|
A|-------------3--|--1---1---------|--1---1----------|-----------------|
E|--1---1---------|----------------|-----------------|--1---1----------|



e|----------------|----------------|-----------------|-----------------|
B|----------------|----------------|-----------------|-----------------|
G|----------------|----------3-----|----------3------|-----------------|
D|----------3-----|-------------3--|-----------------|----------3------|
A|-------------3--|--1---1---------|--1---1----------|-----------------|
E|--1---1---------|----------------|-----------------|--1---1----------|



e|----------------|----------------|-----------------|-----------------|
B|----------------|----------------|-----------------|-----------------|
G|----------------|----------3-----|----------3------|-----------------|
D|----------3-----|-------------3--|-----------------|----------3------|
A|-------------3--|--1---1---------|--1---1----------|-----------------|
E|--1---1---------|----------------|-----------------|--1---1----------|



e|--------------------|----------------|--------------------|----------------|
B|--------------------|----------------|--------------------|----------------|
G|--------------------|----------------|--------------------|----------------|
D|----------5----5----|------3---------|-----------6--------|------9---------|
A|----------3----3----|----------------|--------------------|----------------|
E|--1---1-------------|--1-------1--3--|--4---4--4----4--6--|--7-------7--9--|



e|--------------------------|----------------|--------------------|
B|--------------------------|----------------|--------------------|
G|--------------------------|----------------|--------------------|
D|--------------12--11------|------3---------|-----------6--------|
A|--------------------------|--x-------------|--------------------|
E|--10---10--10---------13/-|--1-------1--3--|--4---4--4----4--6--|



e|----------------|-----------------------------|----------------|
B|----------------|-----------------------------|----------------|
G|----------------|-----------------------------|----------------|
D|------9---------|--------------12-------------|------3---------|
A|----------------|-----------------------------|----------------|
E|--7-------7--9--|--10---10--10-----10--13--0--|--1-------1--3--|



e|--------------------|----------------|--------------------------|
B|--------------------|----------------|--------------------------|
G|--------------------|----------------|--------------------------|
D|-----------6--------|------9---------|--------------12----------|
A|--------------------|----------------|--------------------------|
E|--4---4--4----4--6--|--7-------7--9--|--10---10--10-----10--13/-|



e|----------------|--------------|--------------|------------------|----------|
B|----------------|--------------|--------------|------------------|----------|
G|----------------|--------------|--------------|------------------|----------|
D|------3---------|--------------|--------------|------------------|----------|
A|--x-------------|--------------|--2-2-2-2-2-2-|--5-------4-------|--6-------|
E|--1-------1--3--|--4-4-4-4-4-4-|--------------|------4-------3---|----------|



e|---------|----------|-----------|----------|---------|----------|-----------|
B|---------|----------|-----------|----------|---------|----------|-----------|
G|---------|----------|-----------|----------|---------|----------|-----------|
D|---------|--3-------|--2--------|----------|---------|--3-------|--2--------|
A|--5------|----------|-----------|--6-------|--5------|----------|-----------|
E|---------|----------|-----------|----------|---------|----------|-----------|



e|----------------------|--------------------|----------------------|
B|----------------------|--------------------|----------------------|
G|--------------------3-|--4---3----3-4-3----|--------------------6-|
D|--3-5-6-5-3-5-3-5-6---|---------6----------|--6-8-9-8-6-8-6-8-9---|
A|----------------------|--------------------|----------------------|
E|----------------------|--------------------|----------------------|



e|--------------------|----------------------|--------------------|
B|--------------------|----------------------|--------------------|
G|--7---6----6-7-6----|--------------------3-|--4---3----3-4-3----|
D|---------9----------|--3-5-6-5-3-5-3-5-6---|---------6----------|
A|--------------------|----------------------|--------------------|
E|--------------------|----------------------|--------------------|



e|----------------------|-----------------------|----------------------|
B|----------------------|-----------------------|----------------------|
G|--------------------6-|--7---6----6-7-6-------|--------------------3-|
D|--6-8-9-8-6-8-6-8-9---|---------9-------------|--3-5-6-5-3-5-3-5-6---|
A|----------------------|-----------------------|----------------------|
E|----------------------|--------------------0--|----------------------|



e|--------------------|----------------------|--------------------|
B|--------------------|----------------------|--------------------|
G|--4---3----3-4-3----|--------------------6-|--7---6----6-7-6----|
D|---------6----------|--6-8-9-8-6-8-6-8-9---|---------9----------|
A|--------------------|----------------------|--------------------|
E|--------------------|----------------------|--------------------|



e|----------------------------|-------------|--------------|
B|----------------------------|-------------|--------------|
G|--------------------------9-|--10---9-----|--13---12--10-|
D|--9-11-12-11-9-11-9-11-12---|----------12-|--------------|
A|----------------------------|-------------|--------------|
E|----------------------------|-------------|--------------|



e|-----------------------------------|--10-7------------|--9-6---------|
B|--9---9-10----10-11----11-12----12-|-------8----------|------7-------|
G|----9------10-------11-------12----|---------7--------|--------6-----|
D|-----------------------------------|-----------9------|----------8---|
A|-----------------------------------|-------------10-5-|------------9-|
E|-----------------------------------|------------------|--------------|



e|--12-9--------------|--11-8----------------|--10-7-------------|--9-6---------|
B|-------10-----------|-------9--------------|-------8-----------|------7-------|
G|----------9---------|---------8------------|---------7---------|--------6-----|
D|------------11------|-----------10---------|-----------9-------|----------8---|
A|---------------12---|--------------11---11-|-------------10----|------------9-|
E|------------------9-|-----------------8----|----------------10-|--------------|



e|--12-9--------------|--11-8-----------------------8-11-8-----|
B|-------10-----------|-------9-------------------9--------9---|
G|----------9---------|---------8---------------8------------8-|
D|------------11------|-----------10---------10----------------|
A|---------------12---|--------------11---11-------------------|
E|------------------9-|-----------------8----------------------|



e|-------------------|----------------|------------------|----------------|
B|--1----------------|----------------|------------------|----------------|
G|--x----------------|----------------|------------------|----------------|
D|--3----------------|----------------|------------------|----------------|
A|--3----------------|----------------|------------------|----------------|
E|--1----------------|----------------|------------------|----------------|



e|-------------------|----------------|------------------|----------------|
B|--1----------------|----------------|------------------|----------------|
G|--x----------------|----------------|------------------|----------------|
D|--3----------------|----------------|------------------|----------------|
A|--3----------------|----------------|------------------|----------------|
E|--1----------------|----------------|------------------|----------------|



e|-----------------------------------------|------------------------------------|
B|-----------------------------------------|------------------------------------|
G|-----------------------------------------|------------------------------------|
D|----------------------------------8-9-11-|--9-8-9-11-12-11-9-8-9-11-9-8-------|
A|--8-10-11-10-8-7-8-10-8-7-8-10-11--------|------------------------------11-10-|
E|-----------------------------------------|------------------------------------|



e|-----------------------------------------|------------------------------------|
B|-----------------------------------------|------------------------------------|
G|-----------------------------------------|------------------------------------|
D|----------------------------------8-9-11-|--9-8-9-11-12-11-9-8-9-11-9-8-------|
A|--8-10-11-10-8-7-8-10-8-7-8-10-11--------|------------------------------11-10-|
E|-----------------------------------------|------------------------------------|



e|-----------------------------------------|------------------------------------|
B|-----------------------------------------|------------------------------------|
G|-----------------------------------------|------------------------------------|
D|----------------------------------8-9-11-|--9-8-9-11-12-11-9-8-9-11-9-8-------|
A|--8-10-11-10-8-7-8-10-8-7-8-10-11--------|------------------------------11-10-|
E|-----------------------------------------|------------------------------------|



e|-----------------------------------------|------------------------------------|
B|-----------------------------------------|------------------------------------|
G|-----------------------------------------|------------------------------------|
D|----------------------------------8-9-11-|--9-8-9-11-12-11-9-8-9-11-9-8-------|
A|--8-10-11-10-8-7-8-10-8-7-8-10-11--------|------------------------------11-10-|
E|-----------------------------------------|------------------------------------|



e|-----------------------------------------|------------------------------------|
B|-----------------------------------------|------------------------------------|
G|-----------------------------------------|------------------------------------|
D|----------------------------------8-9-11-|--9-8-9-11-12-11-9-8-9-11-9-8-------|
A|--8-10-11-10-8-7-8-10-8-7-8-10-11--------|------------------------------11-10-|
E|-----------------------------------------|------------------------------------|



e|-----------------------------------------|
B|-----------------------------------------|
G|-----------------------------------------|
D|----------------------------------8-9-11-|
A|--8-10-11-10-8-7-8-10-8-7-8-10-11--------|
E|-----------------------------------------|



e|----------------------------------------------------|
B|----------------------------------------------------|
G|----------------------------------------------------|
D|--9-8-9-11-12-11-9-8-9-11-9-8---------------8-------|
A|------------------------------11-10-8-10-11---11-10-|
E|----------------------------------------------------|



e|--------------------------------------------------|
B|--------------------------------------------------|
G|--------------------------------------------------|
D|-----------------------------------------11-12-14-|
A|--11-13-14-13-11-10-11-13-11-10-11-13-14----------|
E|--------------------------------------------------|



e|--------------------------------------------|
B|--------------------------------------------|
G|--------------------------------------------|
D|--12-11-12-14-15-14-12-11-12-14-12-11-------|
A|--------------------------------------14-13-|
E|--------------------------------------------|



e|--------------------------------------------------|
B|--------------------------------------------------|
G|--------------------------------------------------|
D|-----------------------------------------11-12-14-|
A|--11-13-14-13-11-10-11-13-11-10-11-13-14----------|
E|--------------------------------------------------|



e|--------------------------------------------------------------|
B|--------------------------------------------------------------|
G|--------------------------------------------------------------|
D|--12-11-12-14-15-14-12-11-12-14-12-11-------------------------|
A|--------------------------------------14-13-11-10-11-13-11-10-|
E|--------------------------------------------------------------|



e|--------------------------------------------------|
B|--------------------------------------------------|
G|--------------------------------------------------|
D|-----------------------------------------11-12-14-|
A|--11-13-14-13-11-10-11-13-11-10-11-13-14----------|
E|--------------------------------------------------|



e|--------------------------------------------|
B|--------------------------------------------|
G|--------------------------------------------|
D|--12-11-12-14-15-14-12-11-12-14-12-11-------|
A|--------------------------------------14-13-|
E|--------------------------------------------|



e|--------------------------------------------------|
B|--------------------------------------------------|
G|--------------------------------------------------|
D|-----------------------------------------11-12-14-|
A|--11-13-14-13-11-10-11-13-11-10-11-13-14----------|
E|--------------------------------------------------|



e|--------------------------------------------------------------|
B|--------------------------------------------------------------|
G|--------------------------------------------------------------|
D|--12-11-12-14-15-14-12-11-12-14-12-11----------------11-------|
A|--------------------------------------14-13-11-13-14----14-13-|
E|--------------------------------------------------------------|



e|--------------------------------------------------|
B|--------------------------------------------------|
G|--------------------------------------------------|
D|-----------------------------------------14-15-17-|
A|--14-16-17-16-14-13-14-16-14-13-14-16-17----------|
E|--------------------------------------------------|



e|--------------------------------------------|
B|--------------------------------------------|
G|--------------------------------------------|
D|--15-14-15-17-18-17-15-14-15-17-15-14-------|
A|--------------------------------------17-16-|
E|--------------------------------------------|



e|--------------------------------------------------|
B|--------------------------------------------------|
G|--------------------------------------------------|
D|-----------------------------------------14-15-17-|
A|--14-16-17-16-14-13-14-16-14-13-14-16-17----------|
E|--------------------------------------------------|



e|--------------------------------------------------------------|
B|--------------------------------------------------------------|
G|--------------------------------------------------------------|
D|--15-14-15-17-18-17-15-14-15-17-15-14----------------14-------|
A|--------------------------------------17-16-14-16-17----17-16-|
E|--------------------------------------------------------------|



e|--------------------------------------------------|
B|--------------------------------------------------|
G|-----------------------------------------12-13-15-|
D|--12-14-15-14-12-11-12-14-12-11-12-14-15----------|
A|--------------------------------------------------|
E|--------------------------------------------------|



e|--------------------------------------------|
B|--------------------------------------------|
G|--13-12-13-15-16-15-13-12-13-15-13-12-------|
D|--------------------------------------15-14-|
A|--------------------------------------------|
E|--------------------------------------------|



e|--------------------------------------------------|
B|--------------------------------------------------|
G|-----------------------------------------12-13-15-|
D|--12-14-15-14-12-11-12-14-12-11-12-14-15----------|
A|--------------------------------------------------|
E|--------------------------------------------------|



e|--------------------------------------------------------------|
B|--------------------------------------------------------------|
G|--13-12-13-15-16-15-13-12-13-15-13-12----------------12-------|
D|--------------------------------------15-14-12-14-15----15-14-|
A|--------------------------------------------------------------|
E|--------------------------------------------------------------|



e|--------------------------------------------------|
B|--------------------------------15----------15-17-|
G|-----------------------15-16-18----18-16-18-------|
D|--15-17-18-17-15-17-18----------------------------|
A|--------------------------------------------------|
E|--------------------------------------------------|



e|-----------------------18-19-21-22-21-19-21-22-24-|--19----17-18-19-17----|
B|--18-20-21-20-18-20-21----------------------------|-----20-------------20-|
G|--------------------------------------------------|-----------------------|
D|--------------------------------------------------|-----------------------|
A|--------------------------------------------------|-----------------------|
E|--------------------------------------------------|-----------------------|



e|--18-16-14----------|--21----19-20-21-19-17-|--20-18-16----------------|
B|-----------17-15-13-|-----22----------------|-----------19-17-15-------|
G|--------------------|-----------------------|--------------------17-15-|
D|--------------------|-----------------------|--------------------------|
A|--------------------|-----------------------|--------------------------|
E|--------------------|-----------------------|--------------------------|



e|--19----17-18-19-17----|--18-16-14----------|--21----19-20-21-19-17-|
B|-----20-------------20-|-----------17-15-13-|-----22----------------|
G|-----------------------|--------------------|-----------------------|
D|-----------------------|--------------------|-----------------------|
A|-----------------------|--------------------|-----------------------|
E|-----------------------|--------------------|-----------------------|



e|--20-18-16-------18-16-14-------16-14-12-------14-12-10-------|-------------|
B|-----------19-17----------17-15----------15-13----------13-11-|--9~---9/-x--|
G|--------------------------------------------------------------|-------------|
D|--------------------------------------------------------------|-------------|
A|--------------------------------------------------------------|-------------|
E|--------------------------------------------------------------|-------------|


    G   D#  G  G#    F   C#  D#  E/5-   G   D#  G  G#    A           G#
e|--7-------7--8--|--5---------------|--7-------7--8--|--9---9--9----8----|
B|--8---8---8--9--|--6---6---8---9---|--8---8---8--9--|--10--10-10---9----|
G|--7---8---7--8--|--5---6---8---9---|--7---8---7--8--|--9---9--9----8----|
D|------8---------|------6---8---8---|------8---------|-------------------|
A|----------------|------------------|----------------|-------------------|
E|----------------|------------------|----------------|-------------------|


    G   D#  G  G#    F   C#  D#  E/5-   G   D#  G  G#    A
e|--7-------7--8--|--5---------------|--7-------7--8--|--9---9--9----9---9--9----|
B|--8---8---8--9--|--6---6---8---9---|--8---8---8--9--|--10--10-10---10--10-10---|
G|--7---8---7--8--|--5---6---8---9---|--7---8---7--8--|--9---9--9----9---9--9----|
D|------8---------|------6---8---8---|------8---------|--------------------------|
A|----------------|------------------|----------------|--------------------------|
E|----------------|------------------|----------------|--------------------------|


    A           G#
e|--9---9--9----8------|--8----------------------------|-------------------|
B|--10--10-10---9------|----9---9------7---------------|-------------------|
G|--9---9--9----8------|------8---9------7-----6-------|-------------------|
D|---------------------|------------10-----8-----7-----|-------------------|
A|---------------------|---------------------9-----6---|--2----------------|
E|---------------------|-----------------------------7-|--0----------------|



e|-------------------|-----------------------9------|--------------------------|
B|-------------------|--13--11-9--11-13-------------|--11--9-8--11-9--8--------|
G|-------------------|-------------------10-----10--|-------------------10-----|
D|--4----------------|------------------------------|-----------------------11-|
A|--2----------------|------------------------------|--------------------------|
E|-------------------|------------------------------|--------------------------|



e|-------------------------------|-----------------------------|
B|--13--11-9--11-13------14------|--11--9-8--11-9--------------|
G|-------------------10------10--|-----------------10----------|
D|-------------------------------|---------------------11------|
A|-------------------------------|-------------------------11--|
E|-------------------------------|-----------------------------|



e|-------------------------------|--------------------------|
B|--13--11-9--11-13------14------|--11--9-8--11-9--8--------|
G|-------------------10------10--|-------------------10-----|
D|-------------------------------|-----------------------11-|
A|-------------------------------|--------------------------|
E|-------------------------------|--------------------------|



e|-------------------------------|--4-2-0-7-4-0-4-2-0-7-4-0-4-2-0-0-|
B|--13--11-9--11-13------14------|----------------------------------|
G|-------------------10------10--|----------------------------------|
D|-------------------------------|----------------------------------|
A|-------------------------------|----------------------------------|
E|-------------------------------|----------------------------------|



e|--10-9-0-9-7-0-7-5-0-5-4-0-4-2-0-0-|--4-2-0-7-4-0-4-2-0-7-4-0-4-2-0-0-|
B|-----------------------------------|----------------------------------|
G|-----------------------------------|----------------------------------|
D|-----------------------------------|----------------------------------|
A|-----------------------------------|----------------------------------|
E|-----------------------------------|----------------------------------|



e|--7-5-0-9-7-0-10-9-0-12-10-0-14-12-0-0-|
B|---------------------------------------|
G|---------------------------------------|
D|---------------------------------------|
A|---------------------------------------|
E|---------------------------------------|



e|--12-10-0-16-12-0-12-10-0-16-12-0-12-10-0-0-|
B|--------------------------------------------|
G|--------------------------------------------|
D|--------------------------------------------|
A|--------------------------------------------|
E|--------------------------------------------|



e|--19-17-0-17-16-0-16-14-0-14-12-0-12-10-0-0-|----------------------|
B|--------------------------------------------|----------------------|
G|--------------------------------------------|--------------------6-|
D|--------------------------------------------|--6-8-9-8-6-8-6-8-9---|
A|--------------------------------------------|----------------------|
E|--------------------------------------------|----------------------|



e|----------------------|------------------------|--------------------6-|
B|----------------------|----------------------8-|--9-8-6-8-9-8-6-8-9---|
G|--7-6---6-7-6---6-7-9-|--7-9-10-9-7-9-7-9-10---|----------------------|
D|------9-------9-------|------------------------|----------------------|
A|----------------------|------------------------|----------------------|
E|----------------------|------------------------|----------------------|



e|--------------------------------------|-----------19-18-16----------24-22-21-|
B|-----------------------------17-15-14-|--------------------------------------|
G|--16-15-13----------------------------|--16-15-13----------21-19-18----------|
D|--------------------14-12-11----------|--------------------------------------|
A|-----------14-13-11-------------------|--------------------------------------|
E|--------------------------------------|--------------------------------------|



e|--18-21----18-------------------------|--------------------------|
B|--------20-------20-------------------|--------------------------|
G|--------------21----18-21----18-------|--------------------------|
D|--------------------------20----17-20-|-----17-------------------|
A|--------------------------------------|--19-------19----16----13-|
E|--------------------------------------|--------21----18----15----|



e|-----------------|----------------|----------------|----------------|
B|-----------------|----------------|----------------|----------------|
G|-----------------|----------------|----------------|----------------|
D|--3--------------|----------------|----------------|----------------|
A|--3--------------|----------------|----------------|----------------|
E|--1--------------|----------------|----------------|----------------|



e|----------------|----------------|----------------|----------------|
B|----------------|----------------|----------------|----------------|
G|----------------|----------------|----------------|----------------|
D|----------------|----------------|----------------|----------------|
A|----------------|----------------|----------------|----------------|
E|----------------|----------------|----------------|----------------|



e|------------------------------|------------------------------|
B|------------------------------|------------------------------|
G|------------------------------|------------------------------|
D|--3--3--3--3--3--3--3----3----|--3--3--3--3--3--3--3----3----|
A|------------------------------|------------------------------|
E|------------------------------|------------------------------|



e|------------------------------|------------------------------|
B|------------------------------|------------------------------|
G|------------------------------|------------------------------|
D|--3--3--3--3--3--3--3----3----|--3--3--3--3--3--3--3----3----|
A|------------------------------|------------------------------|
E|------------------------------|------------------------------|



e|------------------------------|------------------------------|
B|------------------------------|------------------------------|
G|------------------------------|------------------------------|
D|--3--3--3--3--3--3--3----3----|--3--3--3--3--3--3--3----3----|
A|------------------------------|------------------------------|
E|------------------------------|------------------------------|



e|------------------------------|------------------------------|
B|------------------------------|------------------------------|
G|------------------------------|------------------------------|
D|--3--3--3--3--3--3--3----3----|--3--3--3--3--3--3--3----3----|
A|------------------------------|------------------------------|
E|------------------------------|------------------------------|



e|------------------------------|------------------------------|
B|------------------------------|------------------------------|
G|------------------------------|------------------------------|
D|--3--3--3--3--3--3--3----3----|--3--3--3--3--3--3--3----3----|
A|------------------------------|------------------------------|
E|------------------------------|------------------------------|



e|------------------------------|------------------------------|
B|------------------------------|------------------------------|
G|------------------------------|------------------------------|
D|--3--3--3--3--3--3--3----3----|--3--3--3--3--3--3--3----3----|
A|------------------------------|------------------------------|
E|------------------------------|------------------------------|



e|------------------------------|------------------------------|
B|------------------------------|------------------------------|
G|------------------------------|------------------------------|
D|--3--3--3--3--3--3--3----3----|--3--3--3--3--3--3--3----3----|
A|------------------------------|------------------------------|
E|------------------------------|------------------------------|



e|------------------------------|------------------------------|
B|------------------------------|------------------------------|
G|------------------------------|------------------------------|
D|--3--3--3--3--3--3--3----3----|--3--3--3--3--3--3--3----3----|
A|------------------------------|------------------------------|
E|------------------------------|------------------------------|



e|--------------------------|--------------------------|
B|--------------------------|--------------------------|
G|--------------------------|--------------------------|
D|--------------3-----3-----|--------------3-----3-----|
A|--------------------------|--------------------------|
E|--1-1-1-1-1-1----1-----1--|--1-1-1-1-1-1----1-----1--|



e|--------------------------|--------------------------|
B|--------------------------|--------------------------|
G|--------------------------|--------------------------|
D|--------------3-----3-----|--------------3-----3-----|
A|--------------------------|--------------------------|
E|--1-1-1-1-1-1----1-----1--|--1-1-1-1-1-1----1-----1--|



e|--------------------------|--------------------------|
B|--------------------------|--------------------------|
G|--------------------------|--------------------------|
D|--------------3-----3-----|--------------3-----3-----|
A|--------------------------|--------------------------|
E|--1-1-1-1-1-1----1-----1--|--1-1-1-1-1-1----1-----1--|



e|--------------------------|--------------------------|------------------------|
B|--------------------------|--------------------------|------------------------|
G|--------------------------|--------------------------|------------------------|
D|--------------3-----3-----|--------------3-----3-----|------------------------|
A|--------------------------|--------------------------|--3-3-3-3-3-3-3----3----|
E|--1-1-1-1-1-1----1-----1--|--1-1-1-1-1-1----1-----1--|--1-1-1-1-1-1-1----1----|



e|------------------------|------------------------|------------------------|
B|------------------------|------------------------|------------------------|
G|------------------------|------------------------|------------------------|
D|------------------------|------------------------|------------------------|
A|--3-3-3-3-3-3-3----3----|--3-3-3-3-3-3-3----3----|--3-3-3-3-3-3-3----3----|
E|--1-1-1-1-1-1-1----1----|--1-1-1-1-1-1-1----1----|--1-1-1-1-1-1-1----1----|



e|------------------------|------------------------|------------------------|
B|------------------------|------------------------|------------------------|
G|------------------------|------------------------|------------------------|
D|--3-3-3-3-3-3-3----3----|--3-3-3-3-3-3-3----3----|--3-3-3-3-3-3-3----3----|
A|--3-3-3-3-3-3-3----3----|--3-3-3-3-3-3-3----3----|--3-3-3-3-3-3-3----3----|
E|--1-1-1-1-1-1-1----1----|--1-1-1-1-1-1-1----1----|--1-1-1-1-1-1-1----1----|



e|------------------------|------------------------|-----------------------------|
B|------------------------|------------------------|-----------------------------|
G|------------------------|------------------------|-----------------------------|
D|--3-3-3-3-3-3-3----3----|--3-3-3-3-3-3-3----3----|--3-3-3-3-3-3-3----3----3----|
A|--3-3-3-3-3-3-3----3----|--3-3-3-3-3-3-3----3----|--3-3-3-3-3-3-3----3----3----|
E|--1-1-1-1-1-1-1----1----|--1-1-1-1-1-1-1----1----|--1-1-1-1-1-1-1----1----1----|



e|------------------------|--------------------------------|
B|------------------------|--------------------------------|
G|------------------------|--------------------------------|
D|--3-3-3-3-3-3-3----3----|--3-3-3-3-3-3-3----3----3----3--|
A|--3-3-3-3-3-3-3----3----|--3-3-3-3-3-3-3----3----3----3--|
E|--1-1-1-1-1-1-1----1----|--1-1-1-1-1-1-1----1----1----1--|



e|------------------------|-----------------------------|-----------------------|
B|------------------------|-----------------------------|-----------------------|
G|------------------------|-----------------------------|-----------------------|
D|--3-3-3-3-3-3-3----3----|--3-3-3-3-3-3-3----3----3----|--3-3-3-3-3-3-3--------|
A|--3-3-3-3-3-3-3----3----|--3-3-3-3-3-3-3----3----3----|--3-3-3-3-3-3-3--------|
E|--1-1-1-1-1-1-1----1----|--1-1-1-1-1-1-1----1----1----|--1-1-1-1-1-1-1--------|



e|-----------------------------|-------------------|------------------|
B|-----------------------------|-------------------|------------------|
G|-----------------------------|-------------------|------------------|
D|--3-3-3-3-3-3-3----3----3----|--3----------------|------------------|
A|--3-3-3-3-3-3-3----3----3----|--3----------------|------------------|
E|--1-1-1-1-1-1-1----1----1----|--1----------------|------------------|



e|------------------|------------------|------------------|------------------|
B|------------------|------------------|------------------|------------------|
G|------------------|------------------|------------------|------------------|
D|------------------|------------------|------------------|------------------|
A|------------------|------------------|------------------|------------------|
E|------------------|------------------|------------------|------------------|



e|-------------------|--------------------|-------------------|------------------|
B|-------------------|--------------------|-------------------|------------------|
G|--5----------------|--------------5--5--|--3----------------|------------------|
D|--5----------------|--------------5--5--|--3----------------|------------------|
A|--3----------------|--------------3--3--|--1----------------|------------------|
E|-------------------|--------------------|-------------------|------------------|



e|-------------------|--------------------|-------------------|
B|-------------------|--------------------|-------------------|
G|-------------------|--------------------|-------------------|
D|--3----------------|--------------3--3--|--5----------------|
A|--3----------------|--------------3--3--|--6----------------|
E|--1----------------|--------------1--1--|--3----------------|



e|--------------------|-------------------|--------------------|
B|--------------------|-------------------|--------------------|
G|--------------------|-------------------|--------------------|
D|--------------------|--6----------------|--------------6--6--|
A|--------------------|--6----------------|--------------6--6--|
E|--------------3--3--|--4----------------|--------------4--4--|



e|--------------------|--------------------|-------------------|
B|--------------------|--------------------|-------------------|
G|--------------------|--------------------|-------------------|
D|--------------------|--------------------|--3----------------|
A|--------------------|--7------------7----|-------------------|
E|--0------------0----|--------------------|--1----------------|



e|-------------------|-------------------|--------------------|
B|-------------------|-------------------|--------------------|
G|-------------------|-------------------|--------------------|
D|-------------------|-------------------|--------------------|
A|--6----------------|--5----------------|--------------5--5--|
E|-------------------|-------------------|--------------------|



e|--------------------|--------------------|--------------------|
B|--------------------|--------------------|--------------------|
G|--------------------|--------------------|--------------------|
D|--------------------|--------------------|--------------------|
A|--------------------|--------------------|--------------------|
E|--1------------1----|--4------------4----|--0------------0----|



e|--------------------|-------------------|-------------------|
B|--------------------|-------------------|-------------------|
G|--------------------|--7----------------|----------7--------|
D|--2-----------------|--7----------------|----------7--------|
A|-----------3--------|--5----------------|----------5--------|
E|--------------------|-------------------|-------------------|



e|-------------------|-------------------|-------------------|-------------------|
B|-------------------|-------------------|-------------------|-------------------|
G|-------------------|-------------------|-------------------|-------------------|
D|-------------------|-------------------|-------------------|-------------------|
A|--4----------------|----------4--------|--3----------------|----------3--------|
E|-------------------|-------------------|-------------------|-------------------|



e|-------------------|-------------------|-------------------|------------------|
B|-------------------|-------------------|-------------------|------------------|
G|-------------------|-------------------|--3----------------|------------------|
D|-------------------|-------------------|--3----------------|------------------|
A|--2----------------|----------2--------|--1----------------|------------------|
E|-------------------|-------------------|-------------------|------------------|



e|-------------------|------------------|-------------------|-------------------|
B|-------------------|------------------|-------------------|-------------------|
G|--5----------------|------------------|-------------------|-------------------|
D|--5----------------|------------------|-------------------|-------------------|
A|--3----------------|------------------|--5----------------|----------5--------|
E|-------------------|------------------|-------------------|-------------------|



e|-------------------|-------------------|-------------------|-------------------|
B|-------------------|-------------------|-------------------|-------------------|
G|-------------------|-------------------|-------------------|-------------------|
D|-------------------|-------------------|-------------------|-------------------|
A|--4----------------|----------4--------|--3----------------|----------3--------|
E|-------------------|-------------------|-------------------|-------------------|



e|-------------------|-------------------|-------------------|------------------|
B|-------------------|-------------------|-------------------|------------------|
G|-------------------|-------------------|--3----------------|------------------|
D|-------------------|-------------------|--3----------------|------------------|
A|--2----------------|----------2--------|--1----------------|------------------|
E|-------------------|-------------------|-------------------|------------------|



e|----------------------|----------------------|----------------------|
B|----------------------|----------------------|----------------------|
G|----------------------|----------------------|----------------------|
D|----------------------|-----------------5----|--5----5----5----5----|
A|--3----3----3----3----|--3----3----3----3----|--3----3----3----3----|
E|----------------------|----------------------|----------------------|



e|----------------------|--------------------|----------------------|
B|----------------------|--------------------|----------------------|
G|--5----5----5----5----|----------12r-------|--12--------10--------|
D|--5----5----5----5----|--------------------|----------------------|
A|--3----3----3----3----|--------------------|----------------------|
E|----------------------|--------------------|----------------------|



e|---------------------|--------------------|----------------------|
B|---------------------|--------------------|----------------------|
G|--9------------------|--8--------9b-------|--10------------12r---|
D|---------------14/---|--x-----------------|----------------------|
A|---------------------|--------------------|----------------------|
E|---------------------|--------------------|----------------------|



e|---------------------------|--------------------|-----------------------|
B|---------------------------|--------------------|-----------------------|
G|--12--------10-------12p10-|--------------------|--10b-------10---------|
D|---------------------------|--13----------------|------------------8----|
A|---------------------------|--------------------|-----------------------|
E|---------------------------|--------------------|-----------------------|



e|-------------------|---------------------|---------------------|
B|-------------------|---------------------|---------------------|
G|----------------8--|--8--------7----8----|--8b-----------------|
D|-------------------|---------------------|---------9--9--------|
A|-------------------|---------------------|---------------------|
E|-------------------|---------------------|---------------------|



e|---------------------------|----------------------|----------------------------|
B|---------------------------|----------------------|----------------------------|
G|----------10----8----10----|--10b-----------------|----------12----10----12----|
D|---------------------------|----------8--8--------|----------------------------|
A|---------------------------|----------------------|----------------------------|
E|---------------------------|----------------------|----------------------------|



e|-----------------------|----------------------------|---------11--11~-------|
B|-----------------------|---------12/-9----8h---9----|--9b-------------------|
G|--12r---13-------------|----------------------------|-----------------------|
D|--------------------9--|--9-------------------------|-----------------------|
A|-----------------------|----------------------------|-----------------------|
E|-----------------------|----------------------------|-----------------------|



e|--------------10----11----|--11r-------------------|
B|--------------------------|------------12--12------|
G|--------------------------|------------------------|
D|--------------------------|------------------------|
A|--------------------------|------------------------|
E|--------------------------|------------------------|



e|-------------13----11----13----|--13r-----------------|--------20r-------------|
B|------12/-x--------------------|----------------13----|-----------------20/22--|
G|-------------------------------|----------------------|------------------------|
D|-------------------------------|----------------------|------------------------|
A|-------------------------------|----------------------|------------------------|
E|-------------------------------|----------------------|------------------------|



e|-------------------------------------------|
B|--22~---22/-x--12/-19--20--22--19----------|
G|-----------------------------------19------|
D|---------------------------------------19--|
A|-------------------------------------------|
E|-------------------------------------------|



e|----------------------------------------------|
B|--------------------------------------10/-12--|
G|----------------------------------------------|
D|--16--17--19--16----------16/-19~-------------|
A|------------------17--------------------------|
E|----------------------17----------------------|



e|--------------------------------------------------|
B|--12----------------------------------------------|
G|----------10--10h12-10h12-10h12-10h12-10h12-10h12-|
D|--------------------------------------------------|
A|--------------------------------------------------|
E|--------------------------------------------------|



e|---------------------------------10-12-13-|--12----------------------17----|
B|------------------------10-12-13----------|--------------------17----------|
G|--10~-----------9-10-12-------------------|----------13--14----------------|
D|--------9-10-12---------------------------|--------------------------------|
A|------------------------------------------|--------------------------------|
E|------------------------------------------|--------------------------------|



e|--16------------------------|----------14------------------|
B|----------------17----17----|--17----------15p-14--15--14b-|
G|----------------------------|------------------------------|
D|----------------------------|------------------------------|
A|----------------------------|------------------------------|
E|----------------------------|------------------------------|



e|-----------------------------|--------------------------17----|
B|----------15/-x--14----15----|--15b---------------17----------|
G|-----------------------------|----------13--14----------------|
D|-----------------------------|--------------------------------|
A|-----------------------------|--------------------------------|
E|-----------------------------|--------------------------------|



e|--16~---------------|--12--14--15~-----------|------------------|
B|--------------------|------------------------|------------------|
G|--------------------|------------------------|------------------|
D|--------------------|------------------------|------------------|
A|--------------------|------------------------|------------------|
E|--------------------|------------------------|------------------|



e|--15--17--19~-----------|------------------|----------------------------|
B|------------------------|------------------|--18~-----------------18----|
G|------------------------|------------------|----------------------------|
D|------------------------|------------------|----------------15----------|
A|------------------------|------------------|----------------------------|
E|------------------------|------------------|----------------------------|



e|--------------------|------------------------|
B|--18~---------------|--18----20----21~-------|
G|--------------------|------------------------|
D|--------------------|------------------------|
A|--------------------|------------------------|
E|--------------------|------------------------|



e|--------------------------------8--9--11--|--13~---------------|
B|-----------------------------9------------|--------------------|
G|-------------------------10---------------|--------------------|
D|------10------8--10--11-------------------|--------------------|
A|----------11------------------------------|--------------------|
E|------------------------------------------|--------------------|



e|--13/-x--------------------------------10-11-|--13----15----16~-------|
B|---------------------------------11-13-------|------------------------|
G|------------------------10-12-13-------------|------------------------|
D|---------------10-12-13----------------------|------------------------|
A|------------13-------------------------------|------------------------|
E|---------13----------------------------------|------------------------|



e|------------------------------------------|--16----18----19~-------|
B|------------------------------16--18--20--|------------------------|
G|------------------15--17--18--------------|------------------------|
D|------15--17--18--------------------------|------------------------|
A|------------------------------------------|------------------------|
E|------------------------------------------|------------------------|



e|------------------------------------------------------14-16-18-|
B|---------------------------------------------14-16-17----------|
G|------------------------------13-15-16-15-16-------------------|
D|---------------13-14-16-14-16----------------------------------|
A|------13-14-16-------------------------------------------------|
E|---------------------------------------------------------------|



e|--19----21----22~-------|------------------|--23~---------------|
B|------------------------|------------------|--------------------|
G|------------------------|------------------|--------------------|
D|------------------------|------------------|--------------------|
A|------------------------|------------------|--------------------|
E|------------------------|------------------|--------------------|


************************************

| x  Dead note
| p  Pull-off
| h  Hammer-on
| /  Slide up
| ~  Vibrato
| r  Release
| b  Bend

************************************
Suggest correction
comments
print report bad tab
20 comments total. Showing first comments.
+2 reply
cglb123 36 Oct 09, 2006 11:14 AM

nice dude...but please seperate the movements because it gets really confusing...again mad props

0 reply
ordinary_story 32 Nov 05, 2006 04:12 AM

no this is awesum u must have copied it frum sumwhere if not u rock!

0 reply
matx33 40 Dec 11, 2006 09:41 PM

wow man...this is like a 24 minute song....good freakin job.

guest
You may want to rate the tab now too:
select rating
Wanna post a correction for this tab? Suggest correction