Oops, an error
Loading. Please wait.

One Last Time Tab

version 2
version 2

Whole song

Interactive

5,367 views 9 this week
1 commentread comment
1 2 3 4 5
excellent!
x 3
add to favorites
launch autoscroll
font size
0
reset
how to read this tab
guitar tuner
Tab Pro tools
  • play this tab
  • loop segment
  • change instrument
  • show fretboard
  • metronome
Autoscroll
slow
fast
+/-
esc
set tempo
stop
Contributor
Difficulty
intermediate
To Users: Whoever needs a tab( not Guitar Pro or Pwr tab) and u cant find it
in this format, send me a private message with the band and SONG u wish and i'll try to 
it!(by exporting guitar pro format to this format)!!!

One Last Time


                                                         Dream Theater
J. Petrucci

     W                   W
E||-------------------|-------------------|-------------------|
B||-------------------|-------------------|-------------------|
G||--6----------------|--L----------------|-------------------|
D||--6----------------|--L----------------|-------------------|
A||--4----------------|--L----------------|-------------------|
E||-------------------|-------------------|-------------------|


  W                   W                   W
-------------------|-------------------|-------------------|
-------------------|-------------------|-------------------|
-------------------|-------------------|-------------------|
-------------------|-------------------|-------------------|
-------------------|-------------------|-------------------|
-------------------|-------------------|-------------------|


  W                   W
-------------------|-------------------|
-------------------|-------------------|
-------------------|-------------------|
-------------------|-------------------|
-------------------|-------------------|
-------------------|-------------------|


  Electric Guitar Clean
  E                     E  E  S S S S S S E  E
------------------------------------------------|
------------------------------------------------|
------------------------------------------------|
------------------------------------------------|
--4------------------------4------4-4-----4-----|
--------------------------------4-------4-------|


  E  E  E  S S S S S S E  E     E  E  E  S S S S S S E  E
-----------------------------|-----------------------------|
-----------------------------|-----------------------------|
-----------------------------|-----------------------------|
-----------------------------|-----------------------------|
--4-----4------4-4-----4-----|--4-----4------4-4-----4-----|
-------------4-------4-------|-------------4-------4-------|


  E  E  E  S S S S S S E  E     S S S S S  S S S S S S S S  S S S
-----------------------------|------------------------------------|
-----------------------------|--------4-5p-4---4---------5p-4-----|
-----------------------------|------6--------6---------6------6-4-|
-----------------------------|----6--------------6---6------------|
--4-----4------4-4-----4-----|--4------------------4--------------|
-------------4-------4-------|------------------------------------|


  S S S S S  S S S S S S S S  S S S
------------------------------------|
----------5p-4---4---------7p-4-----|
--------6------6---------6------4-6-|
--6---6------------6---6------------|
----4----------------4--------------|
------------------------------------|


  S S S S S  S S S S S S S S  S S S
------------------------------------|
--------4-5p-4---4---------5p-4-----|
------6--------6---------6------6-4-|
----6--------------6---6------------|
--4------------------4--------------|
------------------------------------|


                             |--3--|
  S S S S S  S S S S S S S S T  T  T S  S
------------------------------------------|
----------5p-4---4---------5-4h-5p-4------|
--------6------6---------6-----------6p-4-|
--6---6------------6---6------------------|
----4----------------4--------------------|
------------------------------------------|


  S S S S S E  S S S S S S E  S    S S S S S E  S S S S S S E  S
------------0--------------0----|------------0--------------0----|
--------0-L----0-------0-L----0-|--------0-L----0-------0-L----0-|
------6--------------4----------|------4--------------2----------|
----6--------------4------------|----4--------------2------------|
--4--------------2--------------|-----------------0--------------|
--------------------------------|--4-----------------------------|


  S S S S S E  S S S S S S E  S    S S S S S E  S S S S S S E  S
------------0--------------0----|------------0--------------0----|
--------0-L----0-------0-L----0-|--------0-L----0-------0-L----0-|
------6--------------4----------|------4--------------2----------|
----6--------------4------------|----4--------------2------------|
--4--------------2--------------|-----------------0--------------|
--------------------------------|--4-----------------------------|


  Distortion Guitar
  H                 E.  S E  E     Q     E.   T T E.  S E  E
--------------------------------|-----------------------------|
--------------------------------|-----------------------------|
--6-----------------------------|-----------------------------|
--6-----------------------------|---------------------6-L--4--|
--4-----------------2---4-L--6--|---------------------7-L--6--|
--------------------------------|--4~----L~---2-4-5-----------|


  Q    E.  T  T E.  S E  E     E.  S E.   T T E.  S E  E
----------------------------|-----------------------------|
----------------------------|-----------------------------|
--6----L--------------------|-----------------------------|
--6----L--------------------|--6--------------------------|
--4----L---6h-7-6---7-L--9--|------6----------------------|
----------------------------|--------4~---2-4-5---4-L--0--|


  E  E  S S E  Q.        E  E  S E.  E.  S E  E
-----0--L-------------|-----0--L-----------------|
----------0-L---------|----------0---------------|
---------------3------|--------------3-----------|
--4-------------------|--4---------------4-L--2--|
--4-------------------|--4-----------------------|
--2-------------------|--2-----------------------|


  E  E  S S E  Q.        E  E  S E.  E.  S E  E
-----0--L-------------|-----0--L-----------------|
----------0-L---------|----------0---------------|
---------------3------|--------------3-----------|
--4-------------------|--4---------------4-L--2--|
--4-------------------|--4-----------------------|
--2-------------------|--2-----------------------|


   Tempo: 108
   E           E    E   E      E    E   Q
----------------------------------------------|
--17br-------(17)-----------------------------|
-----------------------15br--(15)--11--11~----|
-------------------16-------------------------|
----------------------------------------------|
----------------------------------------------|


                |--3--|
  H         E   S  S  S     E      E    E   E      E    E   Q
------------------------|------------------------------------------|
---------------------14-|--17br--(17)----------------------17pb----|
--L~--------------15----|------------------15br--(15)--------------|
---------------16-------|--------------16--------------16----------|
------------------------|------------------------------------------|
------------------------|------------------------------------------|


       |----3---|   |---3---|   |---3--|   |---3---|   |---3---|
   E   S    S   S   S   S   S   S   S  S   S   S   S   S   S   S  Q
-----------------------------------------------------------------14~--|
---L--17pb-21p-17h-21p-17h-21p-17h-22-17h-24p-17h-24p-17h-24p-17------|
----------------------------------------------------------------------|
----------------------------------------------------------------------|
----------------------------------------------------------------------|
----------------------------------------------------------------------|


   E      E    E   E      E    E   E   E
--------------------------------------------|
--17br--(17)----------------------16--16b~--|
------------------15br--(15)----------------|
--------------16--------------16------------|
--------------------------------------------|
--------------------------------------------|


  E   S  S  T   T   S  S  S  S  S  S  S
-----------14h-18p-14-------------------|
--L--14-17------------17-14-------------|
----------------------------16-15-------|
----------------------------------16-14-|
----------------------------------------|
----------------------------------------|


   E      E    E   E      E    E   E    S  S
---------------------------------------------|
--17br--(17)---------------------------------|
------------------15br--(15)------14b--------|
--------------16--------------16-------16-14-|
---------------------------------------------|
---------------------------------------------|


                   |---3--|         |-----3----|
   E    S  S  E    S  S   S  S   S  S     S    S  S  S  E
-------14---------14------------14--------------------------|
----------14-17b-----17p-14---------------------------------|
--16b-----------------------16b----16br-(16)p-14-16-14------|
-------------------------------------------------------16~--|
------------------------------------------------------------|
------------------------------------------------------------|


  E.  S E  E  E  Q.        E.  S E  E  E  Q.
------------------------|------------------------|
-----------0--L---------|-----------0--L---------|
--2-----2--------2------|--4-----4--------4------|
--2---2-----------------|--4---4-----------------|
--0---------------------|--2---------------------|
------------------------|------------------------|


  E.  S E  E  E  Q.        E.  S E  E  E  Q    E
------------------------|-------------------------|
-----------0--L---------|-----------0--L----------|
--2-----2---------------|-----------------3-------|
--2---2-----------------|--------4-------------4--|
--0---------------------|------4------------------|
-----------------0------|--2----------------------|


  E.  S E  E  E  Q.        E.  S E  E  E  Q.
------------------------|------------------------|
-----------0--L---------|-----------0--L---------|
--2-----2--------2------|--4-----4--------4------|
--2---2-----------------|--4---4-----------------|
--0---------------------|--2---------------------|
------------------------|------------------------|


  Q.     E  E  Q    E     Q.     E  Q    Q
---------3--L----------|---------3--L----2----|
---------------3----x--|--3------3--L----3----|
--5-----------------x--|--2--------------2----|
--5-----------------x--|--0--------------0----|
--3--------------------|----------------------|
-----------------------|----------------------|


  E.  S E  E  E  Q.        E.  S E  E  E  Q.
------------------------|------------------------|
-----------0--L---------|-----------0--L---------|
--2-----2--------2------|--4-----4--------4------|
--2---2-----------------|--4---4-----------------|
--0---------------------|--2---------------------|
------------------------|------------------------|


   H        H           W
---------------------|-------------------|
---------------------|-------------------|
--11--------9--------|--7----------------|
--11--------9--------|--7----------------|
---9--------7--------|--5----------------|
---------------------|-------------------|


                 |---3--|
  Q    E  E   E  S   S  S  E  E      S  S  E   H         E.    T   T
---------------------------------|-----------------------------------|
----------9--10--9h-10p-9--------|--12-14-15~--L~--------L~---14h-15-|
--------------------------11--9--|-----------------------------------|
---------------------------------|-----------------------------------|
---------------------------------|-----------------------------------|
---------------------------------|-----------------------------------|


   E.   S S  S  E   Q      E.       T   T
------------------------------------------|
--14---15-L----15b--L----(15)pbr---15p-14-|
------------14----------------------------|
------------------------------------------|
------------------------------------------|
------------------------------------------|


   E.   S S  S  E    Q    E.   T   T
-------------------------------------|
--12---14-L----14b~--L----L---14h-15-|
------------11-----------------------|
-------------------------------------|
-------------------------------------|
-------------------------------------|


   E.   S S  S  E    S    S    E     E.   T   T
------------------------------------------------|
--14---15-L----15b--15pb-15pb-15pb~--L---13p-12-|
------------13----------------------------------|
------------------------------------------------|
------------------------------------------------|
------------------------------------------------|


        |---3---|           |---3---|
   Q    E   E   E      Q    E   E   E
---------------------------------------|
--13----L--12--13--13g12----L--13--15--|
---------------------------------------|
---------------------------------------|
---------------------------------------|
---------------------------------------|


   Q      E.   T   T  Q     E.   T   T
---------------------------------------|
--15b~----L---15h-16-18~----L---16p-15-|
---------------------------------------|
---------------------------------------|
---------------------------------------|
---------------------------------------|


   Q      Q      Q      Q         Q      Q      Q      Q
------------------------------|------------------------------|
--16~-----------15~-----------|--16~-----------15~-----------|
------------------------------|------------------------------|
---------17~-----------17~----|---------17~-----------17~----|
------------------------------|------------------------------|
------------------------------|------------------------------|


   Q      Q      Q      Q         Q      Q      Q      Q
--16~-----------15~-----------|--16~-----------15~-----------|
------------------------------|------------------------------|
---------17~-----------17~----|---------17~-----------17~----|
------------------------------|------------------------------|
------------------------------|------------------------------|
------------------------------|------------------------------|


   Q      Q      Q      Q         Q     Q     Q     Q
--16~-----------15~-----------|--16----15----------------|
------------------------------|--------------18----16----|
---------17~-----------17~----|--------------------------|
------------------------------|--------------------------|
------------------------------|--------------------------|
------------------------------|--------------------------|


   W
--------------------|-------------------|-------------------|
--13----------------|-------------------|-------------------|
--------------------|-------------------|-------------------|
--------------------|-------------------|-------------------|
--------------------|-------------------|-------------------|
--------------------|-------------------|-------------------|


-------------------|-------------------|-------------------||
-------------------|-------------------|-------------------||
-------------------|-------------------|-------------------||
-------------------|-------------------|-------------------||
-------------------|-------------------|-------------------||
-------------------|-------------------|-------------------||


Duration Legend
---------------
W - whole
H - half
Q - quarter
E - 8th
S - 16th
T - 32nd
X - 64th
. - note dotted
|-n-|  - n-tuplets


Tablature Legend
----------------
L - tied note
x - dead note
g - grace note
(n) - ghost note
> - accentuded note
NH - natural harmonic
AH - artificial harmonic
TH - tapped harmonic
SH - semi harmonic
PH - pitch harmonic
h - hammer on
p - pull off
b - bend
br - bendRelease
pb - preBend
pbr - preBendRelease
brb - bendReleaseBend
\n/ - tremolo bar dip
\n - tremolo bar dive
-/n - tremolo bar Release up
/n\ - tremolo bar inverted dip
/n - tremolo bar return
-\n - tremolo bar Release down
S - shift slide
s - legato slide
/ -  slide into from below or out of upwards
\ -  slide into from above or out of downwards
~ - vibrato
W - wide vibrato
tr - trill
TP - tremolo picking
T - tapping
S - slap
P - pop
< - fade in
^ - brush up
v - brush down
comments
We did not receive enough feedback on this tab! Please rate:
print report bad tab
1 2 3 4 5
1 comment total.
0 reply
pgfan92 wrote on April 1 2008, 02:47 pm

how about the piano part?

I want to post or [tab]
guest
You may want to rate the tab now too:
select rating
Please do not post tabs as comments. Select "correction" instead!