Oops, an error
Loading. Please wait.

Only A Matter Of Time Bass Tab

version 1
version 1

Whole song

Interactive

657 views 1 this week
no commentswrite comment
1 2 3 4 5
please rate
add to favorites
launch autoscroll
font size
0
reset
guitar tuner
Autoscroll
slow
fast
+/-
esc
set tempo
stop
Help us to improve Ultimate-Guitar.com Take our survey!
×
Author
Standard Tuning
   
Intro 
G|------------------------------------------------------------------------|
D|------------------------------------------------------------------------|
A|----4------2-4--------5------4-3--------4------5-4------5-3--------5----|
E|--------------------3-----------------3--------------------------3------|

G|--------------5---5----|-------------5------5----|----------5---5----|
D|-----------------------|-------------------------|-------------------|
A|--------4---4---4------|----5--4---4---4--4------|----4---4---4------|
E|----3------------------|-------------------------|-------------------|
     
G|----------------5---5----|--------------5-----5----|-------5---5-5----|
D|----8h7h6----------------|--------8----------------|------------------|
A|----------4---4---4------|----4h5-----4---4-4------|----4----4--------|
E|-------------------------|-------------------------|------------------|

G|-------5-----5------5-5-----5--5~----|
D|-------------------------------------|
A|----4----4-4-----4-------4-----------|
E|-------------------------------------|

G|-------------------------------------------------------------------|
D|-------------------------------------------------------------------|
A|----4----3--1----1--4----1----3--4----3--1----1--4----3--1----5----|
E|-------------------------------------------------------------------|

G||---------5-----------------------|| 
D||*-----------5(5)--6(6)--3(3)----*||  x2
A||*----4-4------------------------*||
E||---------------------------------||
             
G||------5-----------------||
D||*---------5----6--3----*||  x4
A||*----x--------x--------*||
E||------------------------||
    
G|-----5--------------------------5---------------------------| 
D|----------5----6---------------------5----6--------3--------|
A|----4----4----4----------------4----4----4----4-------------|
E|-------------------0-0-2-x-x-3------------------------------|
                    
G|----0/9\5/10\0---------------------------| 
D|--------------------------0-0/7~~~~\0----|
A|-----------------------------------------|
E|-----------------------------------------|

G|---0/10\0-------0/13\12\10~~-------0/13-0/12-0/10~~---0/8~~~----|
D|----------------------------------------------------------------|
A|----------------------------------------------------------------|
E|----------------------------------------------------------------|
         
G|-----------------------------5----------------|-----5-----------------|
D|----------------------0-2-3-3----5---6---3----|---------5---6---3-----|
A|----------0-2-3-4--4--------------------------|----4------------------|
E|----0-1-3-------------------------------------|-----------------------|

G|-----5----------------|----5--------------|-----5-----------|-drums-|
D|---------5---6---3----|--------5---6---3--|----------5----6-|--fill-|
A|----4-----------------|-------------------|----4----4----4--|-------|
E|----------------------|-------------------|-----------------|-------|

G|----5----------------|
D|--------5---6---3----|
A|---------------------|
E|---------------------|

G|--------------------------------0/5-5/13-7/12----------------------------|
D|----3~~~~~----3/6\3/6\3/10\3-0/3-----------------------------------------|
A|-----------------------------------------------(0/5~)--------------------|
E|--------------------------------------------------------5/9--5/8--(8)----|


G|------drum fill------|-----------0/5-5/13-7/12-------------------|
D|---------------------|--------0/3--------------------------------|
A|---------------------|0/5~~~-------------------------------------|
E|---------------------|-----------------------------(7)--(10~)----|
                 
G|--------------------------------|--------------------------------|
D|------------------0-2-3-4-5~----|--------------------------------|
A|----------0-2-3-4---------------|--------------------------------|
E|----0-1-3-----------------------|--------------------------------|


G|-------------------------------------------------------------------|
D|--------0-2-4~~---2-0----------------------------------------------|
A|----3~~-------------------3-2-----1-3-x2~~-----3-2------2-3-2~~----|
E|----------------------3~~-----5~~----------5~~-----5~~-------------|


G||---------------------------||     G||-----5-----------------||
D||*-------------------------*||  x8 D||*--------5---6---3----*||x2         
A||*----x-3-3-3-3-x-x-3-3----*||     A||*---------------------*||
E||---------------------------||     E||-----------------------||

Thanks, please rate it after you learn it.
Suggest correction
What's this?
You can suggest a correction to this tab. Community and Mods will review your correction and vote to approve or reject it.
comments
We did not receive enough feedback on this tab! Please rate:
print report bad tab
1 2 3 4 5
guest
You may want to rate the tab now too:
select rating
Please do not post tabs as comments. Select "correction" instead!